Song name
# A B C D E F G H I J K L M N O P Q R S T U V W X Y Z

Three Days Grace - Animal I Have Become tab

E|------------------------------------------------------------------|
B|------------------------------------------------------------------|
G|------------------------------------------------------------------|
D|----------2---------------2---------------2---------------2-------|
A|--2---2-3---3-2---2---2-3---3-2---2---2-3---3-2---2---2-3---3-2---|
D|--2---------------2---------------2---------------2---------------|

E|-----------------|
B|-----------------|
G|--4--------------|
D|--2-------2------|
A|--2---2-3---3-2--|
D|--2--------------|...
Tap to rate this tab
 
# A B C D E F G H I J K L M N O P Q R S T U V W X Y Z