Song name
# A B C D E F G H I J K L M N O P Q R S T U V W X Y Z

Three Days Grace - Are You Ready tab

Are You Ready
Three Days Grace
Drop D tuning

Tabbed by Sonicwind4: I think that this song is great and even greater when you can play it.
So, have fun with it.


Intro            X2
e|-------|      |---------------------------|
B|-------|      |---------------------------|
G|-------|      |-4---6---7-----------------|
D|-0~~~--|      |-4---6---7---5-2-----------|
A|-0~~~--|      |-2---4---5---5-2-----------|
D|-0~~~--|      |-------------5-2-----------|

Verse 1    4X
e|---------------------------------|
B|---------------------------------|
G|-4~~~----------------------------|
D|-4~~~----------------------------|
A|-2~~~----------------------------|
D|---------------------------------|

Pre-chorus
e|---------------------------------|
B|---------------------------------|
G|-9----4----9----6666-------------|
D|-7----2----7----4444-4-4-4-------|
A|-7----2----7----4444-4-4-4-------|
D|-7----2----7----4444-4-4-4-------|
               PM|----|
Chorus  4X
e|----------------------------------|
B|----------------------------------|
G|----------------------------------|
D|-00-4~-00-4~-44----55-------------|
A|-00----00----44-4~-55-5~----------|
D|-00----00----44----55-------------|

Verse 2   4X
e|---------------------------------|
B|---------------------------------|
G|-4~~~----------------------------|
D|-4~~~----------------------------|
A|-2~~~----------------------------|
D|---------------------------------|

Pre-chorus
e|---------------------------------|
B|---------------------------------|
G|-9----4----9----6666-------------|
D|-7----2----7----4444-4-4-4-------|
A|-7----2----7----4444-4-4-4-------|
D|-7----2----7----4444-4-4-4-------|
               PM|----|

Chorus  4X
e|----------------------------------|
B|----------------------------------|
G|----------------------------------|
D|-00-4~-00-4~-44----55-------------|
A|-00----00----44-4~-55-5~----------|
D|-00----00----44----55-------------|



Bridge  2X
e|-----------------------------------|
B|-----------------------------------|
G|-4--5--2---------------------------|
D|-4--5--2--44445555-----------------|
A|-2--3--0--44445555-----------------|
D|----------44445555-----------------|
         PM|-------------------------|

Ending
e|-----------------------------|
B|-----------------------------|
G|-----------------------------|
D|-00---00---44----55----------|
A|-00---00---44-4~-55-5~-------|
D|-00---00---44----55----------|

  4X
e|-------------------------|     |----------|
B|-------------------------|     |----------|
G|-------------------------|     |----------|
D|-00-4~-00-4~-44----55----|     |-0--------|
A|-00----00----44-4~-55-5~-|     |-0--------|
D|-00----00----44----55----|     |-0--------|



Tabulature Legend
--------------------
~ = vibrato
PM = palm-mute
Tap to rate this tab
 
# A B C D E F G H I J K L M N O P Q R S T U V W X Y Z