Song name
# A B C D E F G H I J K L M N O P Q R S T U V W X Y Z

Three Days Grace - Its Never Too Late tab

-------------------------------------------------------------------------------
                             Its never to late  Three Days Grace
-------------------------------------------------------------------------------
Tabbed by:Joham
E-mail:joearm13@yahoo.com

This is my first tab and I know in the video it looks like he plays it different but I think
this way is easier and lets the strings ring more let me know what you think

Tuning:DADGBe
Intro/Verse
e|-----------------------------------------------------|---------------------|
B|-----------------------------------------------------|---------------------|
G|------------5-------------------5--3--2--------------|---------------------|
D|--------3------3------------------------h3-----------|----------------x3---|
A|----1------------------------------------------------|---------------------|
D|-------------------0------0--------------------------|---------------------|

e|------------------------------|--------------------------------------------|
B|------------------------------|--------------------------------------------|
G|-----------5---------5--------|------repeat till chorus--------------------|
D|-------2------2------5--------|--------------------------------------------|
A|----0----------------3--------|--------------------------------------------|
D|------------------------------|--------------------------------------------|
Chorus: strum according to song
e|-------------------------|----|--------------------------------------------|
B|-------------------------|----|--------------------------------------------|
G|----------3-----2----5---|----|-----3--------2-----------------------------|
D|-----0----3-----2----5---|-x3-|-----3---0----2-----------------------------|
A|-----0----1-----0----3---|----|-----1---0----0-----------------------------|
D|-----0-------------------|----|---------0----------------------------------|
Bridge
e|-------------------|-----|-------------------------------------------------|
B|-------------------|-----|-------------------------------------------------|
G|----3-------5------|--x3-|----3-----2-----5--------------------------------|
D|----3---3---5------|-----|----3-----2-----5--------------------------------|
A|----1---3---3------|-----|----1-----0-----3--------------------------------|
D|--------3----------|-----|-------------------------------------------------|
Tap to rate this tab
# A B C D E F G H I J K L M N O P Q R S T U V W X Y Z