Song name
# A B C D E F G H I J K L M N O P Q R S T U V W X Y Z

Three Days Grace - Chalk Outline tab

-------------------------------------------------------------------------------
                             Chalk Outline - Three Days Grace
-------------------------------------------------------------------------------
Tabbed by: Adam Gaffney
E-mail: gaffers1996@gmail.com

Tuning: Drop C

Note: This sounds 100% right to me, apart from the solo, which I'm unsure about, but it 
sounds like it fits, if you think you have an improvement let me know by emailing me, thanks.

Intro
D|-9b--------9b------------9b----------------------9b-----------------|
A|--------------------------------------------------------------------|
F|--------------------------------------------------------------------|
C|---4-xxxx----4-xxxx-xx-xx--4-xxxx--xx-4-xxxx-xxx--------------------|
G|---4-xxxx----4-xxxx-xx-xx--4-xxxx--xx-4-xxxx-xxx--------------------|
C|---4-xxxx----4-xxxx-xx-xx--4-xxxx--xx-4-xxxx-xxx--------------------|

Verse
D|---------------------------------9b---------------------------------|
A|--------------------------------------------------------------------|
F|---------------------------------------------------------4----------|
C|-4------4------0------4-xxxx-xxx----4------4------0------4----------|
G|-4------4------0------4-xxxx-xxx----4------4------0------2----------|
C|-4------4------0------4-xxxx-xxx----4------4------0-----------------|

Chorus
D|--------------------------------------------------------------------|
A|--------------------------------------------------------------------|
F|--------------------------------------------------------------------|
C|-7--7--7--7--4--4--4--4--11--11--11--11--9--9--9--9-----------------|
G|-7--7--7--7--4--4--4--4--11--11--11--11--9--9--9--9-----------------|
C|-7--7--7--7--4--4--4--4--11--11--11--11--9--9--9--9-----------------|

D|--------------------------------------------------------------------|
A|--------------------------------------------------------------------|
F|--------------------------------------------------------------------|
C|-7--7--7--7--4--4--4--4--11--11--11--11--12--12--12-----------------|
G|-7--7--7--7--4--4--4--4--11--11--11--11--12--12--12-----------------|
C|-7--7--7--7--4--4--4--4--11--11--11--11--12--12--12--11-9-7-9-------|

Post-Chorus
D|---------9b---------------------------------------------------------|
A|--------------------------------------------------------------------|
F|--------------------------------------------------------------------|
C|-4-xxxx----4-xxxx-xxx-----------------------------------------------|
G|-4-xxxx----4-xxxx-xxx-----------------------------------------------|
C|-4-xxxx----4-xxxx-xxx-----------------------------------------------|

Bridge
D|--------------------------------------------------------------------|
A|--------------------------------------------------------------------|
F|--------------------------------------------------------------------|
C|-7--7--7--7--9--9--9------------7676-6464-24-4242-2020-02-----------|
G|-7--7--7--7--9--9--9------------------------------------------------|
C|-7--7--7--7--9--9--9-11-9-7-9--7------------------------------------|

Solo
D|-------------------------------5h7h8-7h9h10|  |-14b-----------------|
A|--------------------------5h7h8------------|  |---------------------|
F|-----------4h6h7-----4h6h7-----------------|  |---------------------|
C|------4h6h7-----4h6h7----------------------|x2|---------------------|
G|-4h6h7-------------------------------------|  |---------------------|
C|-------------------------------------------|  |---------------------|

Outro
D|--------------------------------------------------------------------|
A|--------------------------------------------------------------------|
F|--------------------------------------------------------------------|
C|-4------------------------------------------------------------------|
G|-4------------x3----------------------------------------------------|
C|-4---11-9-7-9-------------------------------------------------------|

Intro
Verse
Chorus
Post-Chorus
Verse
Chorus
Bridge
Solo
Chorus (Start at first 11)
Post-Chorus
Outro

************************************

| /   slide up
| \   slide down
| h   hammer-on
| p   pull-off
| ~   vibrato
| +   harmonic
| x   Mute note
| b   Bend
| pb  Pre-bend
| br  Bend release
| pbr Pre-bend release
| brb Bend release bend

************************************
Tap to rate this tab
# A B C D E F G H I J K L M N O P Q R S T U V W X Y Z