Song name
# A B C D E F G H I J K L M N O P Q R S T U V W X Y Z

Three Days Grace - Broken Glass tab

Artist: Three Days Grace
Song: Broken Glass
Tuning: Drop C
Tabbed by: shredforever

Intro:
d|----------------------------------------------------------------------------|
A|----------------------------------------------------------------------------|
F|----------------------------------------------------------------------------|
C|----------------------------------------------------------------------------|
G|----------------------------------------------------------------------------|
C|-0-0-0-0-0-0-0-0---10-10-10-10---3-3-3-3---8-8-8-8-8-8-8-8-8-8-8-8-8-8-8-8--|

d|----------------------------------------------------------------------------|
A|----------------------------------------------------------------------------|
F|----------------------------------------------------------------------------|
C|----------------------------------------------------------------------------|
G|----------------------------------------------------------------------------|
C|-7-7-7-7-7-7-7-7---10-10-10-10---3-3-3-3---0-0-0-0-0-0-0-0-0-0-0-0-0-0-0-0--|

d|----------------------------------------------------------------------------|
A|----------------------------------------------------------------------------|
F|----------------------------------------------------------------------------|
C|----------------------------------------------------------------------------|
G|----------------------------------------------------------------------------|
C|-0-0-0-0-0-0-0-0---10-10-10-10---3-3-3-3---8-8-8-8-8-8-8-8-8-8-8-8-8-8-8-8--|

d|-------------------------------------------------------------------|
A|-------------------------------------------------------------------|
F|-------------------------------------------------------------------|
C|-------------------------------------------------------------------|
G|-------------------------------------------------------------------|
C|-7-7-7-7-7-7-7-7---10-10-10-10---3-3-3-3---0---0---0---8-7-8-12~---|

Verse:
d|---------------------------------------------------------|
A|---------------------------------------------------------|
F|---------------------------------------------------------|
C|---------------------------------------------------------|
G|---------------------------------------------------------|
C|-0-0---0-0---0-0---8-7-8-12~---0-0---0-0---0-0---8-7-8---|

d|-------------------------------------------------------------------|
A|-------------------------------------------------------------------|
F|-------------------------------------------------------------------|
C|-------------------------------------------------------------------|
G|-------------------------------------------------------------------|
C|-3-3-3-3-3-3-3-3---3-3---3-3-3-3---0-0---0-0---0-0-0---8-7-8-12~---|

d|---------------------------------------------------------|
A|---------------------------------------------------------|
F|---------------------------------------------------------|
C|---------------------------------------------------------|
G|---------------------------------------------------------|
C|-0-0---0-0---0-0---8-7-8-12~---0-0---0-0---0-0---8-7-8---|

d|-------------------------------------------------------------|
A|-------------------------------------------------------------|
F|-------------------------------------------------------------|
C|-----------------------------------------------------3-3-3---|
G|-----------------------------------------------------3-3-3---|
C|-3-3-3-3-3-3-3-3-3-3-3-3-3-3-3-3---5-5-5-5-5-5-5-5---3-3-3---|
                                                       * * *
Chorus:
d|----------------------------------------------------------------------------|
A|----------------------------------------------------------------------------|
F|----------------------------------------------------------------------------|
C|----------------------------------------------------------------------------|
G|----------------------------------------------------------------------------|
C|-0-0-0-0-0-0-0-0---10-10-10-10---3-3-3-3---8-8-8-8-8-8-8-8-8-8-8-8-8-8-8-8--|

d|----------------------------------------------------------------------------|
A|----------------------------------------------------------------------------|
F|----------------------------------------------------------------------------|
C|----------------------------------------------------------------------------|
G|----------------------------------------------------------------------------|
C|-7-7-7-7-7-7-7-7---10-10-10-10---3-3-3-3---0-0-0-0-0-0-0-0-0-0-0-0-0-0-0-0--|

d|----------------------------------------------------------------------------|
A|----------------------------------------------------------------------------|
F|----------------------------------------------------------------------------|
C|----------------------------------------------------------------------------|
G|----------------------------------------------------------------------------|
C|-0-0-0-0-0-0-0-0---10-10-10-10---3-3-3-3---8-8-8-8-8-8-8-8-8-8-8-8-8-8-8-8--|

d|-------------------------------------------------------------------|
A|-------------------------------------------------------------------|
F|-------------------------------------------------------------------|
C|-------------------------------------------------------------------|
G|-------------------------------------------------------------------|
C|-7-7-7-7-7-7-7-7---10-10-10-10---3-3-3-3---0---0---0---8-7-8-12~---|

Repeat Verse

Chorus 2:
d|----------------------------------------------------------------------------|
A|----------------------------------------------------------------------------|
F|----------------------------------------------------------------------------|
C|----------------------------------------------------------------------------|
G|----------------------------------------------------------------------------|
C|-0-0-0-0-0-0-0-0---10-10-10-10---3-3-3-3---8-8-8-8-8-8-8-8-8-8-8-8-8-8-8-8--|

d|----------------------------------------------------------------------------|
A|----------------------------------------------------------------------------|
F|----------------------------------------------------------------------------|
C|----------------------------------------------------------------------------|
G|----------------------------------------------------------------------------|
C|-7-7-7-7-7-7-7-7---10-10-10-10---3-3-3-3---0-0-0-0-0-0-0-0-0-0-0-0-0-0-0-0--|

d|----------------------------------------------------------------------------|
A|----------------------------------------------------------------------------|
F|----------------------------------------------------------------------------|
C|----------------------------------------------------------------------------|
G|----------------------------------------------------------------------------|
C|-0-0-0-0-0-0-0-0---10-10-10-10---3-3-3-3---8-8-8-8-8-8-8-8-8-8-8-8-8-8-8-8--|

d|---------------------------------------------|
A|-----------------------------------------3---|
F|-----------------------------------------2---|
C|-----------------------------------------0---|
G|-----------------------------------------0---|
C|-7-7-7-7-7-7-7-7---10-10-10-10---3-3-2---0---|

Bridge:
d|----------------------------------------------------|
A|----------------------------------------------------|
F|----------------------------------------------------| x3
C|-8-7----7---8-7----7-----10-8-7-8---7---------------|
G|-----10---------10---7----------------10-8-7-8------|
C|-----------------------------------------------10---|

Final Chorus:
d|----------------------------------|
A|----------------------------------|
F|----------------------------------|
C|----------------------------------|
G|----------------------------------|
C|-8-8-8-8-8-8-8-8-8-8-8-8-8-8-8-8--|

d|----------------------------------------------------------------------------|
A|----------------------------------------------------------------------------|
F|----------------------------------------------------------------------------|
C|----------------------------------------------------------------------------|
G|----------------------------------------------------------------------------|
C|-7-7-7-7-7-7-7-7---10-10-10-10---3-3-3-3---0-0-0-0-0-0-0-0-0-0-0-0-0-0-0-0--|

d|----------------------------------------------------------------------------|
A|----------------------------------------------------------------------------|
F|----------------------------------------------------------------------------|
C|----------------------------------------------------------------------------|
G|----------------------------------------------------------------------------|
C|-0-0-0-0-0-0-0-0---10-10-10-10---3-3-3-3---8-8-8-8-8-8-8-8-8-8-8-8-8-8-8-8--|

d|-------------------------------------------|
A|-------------------------------------------|
F|-------------------------------------------|
C|-------------------------------------------|
G|-------------------------------------------|
C|-7-7-7-7-7-7-7-7---10-10-10-10---3-3-3-3---|

Outro:
d|-------------------------------------------------------------|
A|-------------------------------------------------------------|
F|-------------------------------------------------------------|
C|-------------------------------------------------------------|
G|-------------------------------------------------------------|
C|-0-0---0-0---0-0---8-7-8-12~---0-0---0-0---0-0---8-7-8-12~---|

d|-----------------------------------|
A|-------------------------------3---|
F|-------------------------------2---|
C|-------------------------------0---|
G|-------------------------------0---|
C|-0-0---0-0---0-0---8-7-8-12~---0---|

Legend:
~ - vibrato
* - palm mute
Tap to rate this tab
 
# A B C D E F G H I J K L M N O P Q R S T U V W X Y Z