Song name
# A B C D E F G H I J K L M N O P Q R S T U V W X Y Z

Three Days Grace - The High Road tab

----------------------------------------------------------------------------
                            The High Road
                           Three Days Grace
----------------------------------------------------------------------------

This was a suggested song and I wasn’t too thrilled about it the first couple listens. 
But then, after playing it a couple times, I actually enjoy it all. “The High Road” is 
very heart-felt and is definitely one that grows on you. Enjoy!

Username: dkm817 (same on X box live)
Youtube Cover: http://www.youtube.com/watch?v=S0m0WzcHsEI
Email: guitardrums@rockfan.com

Guitar 1 Rhythmic (B  F# B  E  G# C# )
Guitar 2 Lead     (B  F# B  E  G# C# )

Tab Guide...
===================================================================
(end of measures)

===================================================================
===================================================================
(end of parts)

===================================================================
===================================================================
===================================================================
(end of song)
(If there is a “continued” it is because the numbers could not
fit on 1 line or connecting times played.)


===================================================================
Guitar 1
===================================================================


Verse 1

Guitar 1
C#-----------------------------------------------------------------|
G#-----------------------------------------------------------------|
E -9~~~~-9-x-x-5~~~~~~~~~~~~~~~~~~~~~~~~~~~~~~~~~~~~~~~~~~~~~~~~~~-|
B -9~~~~-9-x-x-5~~~~~~~~~~~~~~~~~~~~~~~~~~~~~~~~~~~~~~~~~~~~~~~~~~-|
F#-7~~~~-7-x-x-3~~~~~~~~~~~~~~~~~~~~~~~~~~~~~~~~~~~~~~~~~~~~~~~~~~-|
B -----------------------------------------------------------------|

===================================================================

Guitar 1
C#-----------------------------------------------------------------|
G#-----------------------------------------------------------------|
E -----------------------------------------------------------------|
B -5~~~~-5-x-x-9~~~~~~~~~~~~~~~~~~~~~~~~~~~~~~~~~~~~~~~~~~~~~~~~~~-|
F#-5~~~~-5-x-x-9~~~~~~~~~~~~~~~~~~~~~~~~~~~~~~~~~~~~~~~~~~~~~~~~~~-|
B -5~~~~-5-x-x-9~~~~~~~~~~~~~~~~~~~~~~~~~~~~~~~~~~~~~~~~~~~~~~~~~~-|

===================================================================

Guitar 1
C#-----------------------------------------------------------------|
G#-----------------------------------------------------------------|
E -9~~~~-9-x-x-5~~~~~~~~~~~~~~~~~~~~~~~~~~~~~~~~~~~~~~~~~~~~~~-5-x-|
B -9~~~~-9-x-x-5~~~~~~~~~~~~~~~~~~~~~~~~~~~~~~~~~~~~~~~~~~~~~~-5-x-|
F#-7~~~~-7-x-x-3~~~~~~~~~~~~~~~~~~~~~~~~~~~~~~~~~~~~~~~~~~~~~~-3-x-|
B -----------------------------------------------------------------|

===================================================================

Guitar 1
C#-----------------------------------------------------------------|
G#-----------------------------------------------------------------|
E -------------7~~~~~~~~~~~~~~~~~~~~~~~~~~~~~~~~~~~~~~~~~~~~~~~~~~-|
B -5~~~~-5-x-x-7~~~~~~~~~~~~~~~~~~~~~~~~~~~~~~~~~~~~~~~~~~~~~~~~~~-|
F#-5~~~~-5-x-x-5~~~~~~~~~~~~~~~~~~~~~~~~~~~~~~~~~~~~~~~~~~~~~~~~~~-|
B -5~~~~-5-x-x-----------------------------------------------------|

===================================================================
===================================================================


Pre Chorus 1


Guitar 1
C#-----------------------------------------------------------------|
G#-----------------------------------------------------------------|
E -5~~~~-5-x-x-9~~~~~~~~~~~~~~~~~~~~~~~~~~~~~~~~~~~~~~~~~~-9~~~~~~-|
B -3~~~~-5-x-x-9~~~~~~~~~~~~~~~~~~~~~~~~~~~~~~~~~~~~~~~~~~-9~~~~~~-|
F#-3~~~~-3-x-x-7~~~~~~~~~~~~~~~~~~~~~~~~~~~~~~~~~~~~~~~~~~-7~~~~~~-|
B -----------------------------------------------------------------|

===================================================================

Guitar 1
C#-----------------------------------------------------------------|
G#-----------------------------------------------------------------|
E -------------7~~~~~~~~~~~~~~~~~~~~~~~~~~~~~~~~~~~~~~~~~~-7~~~~~~-|
B -5~~~~-5-x-x-7~~~~~~~~~~~~~~~~~~~~~~~~~~~~~~~~~~~~~~~~~~-7~~~~~~-|
F#-5~~~~-5-x-x-5~~~~~~~~~~~~~~~~~~~~~~~~~~~~~~~~~~~~~~~~~~-5~~~~~~-|
B -5~~~~-5-x-x-----------------------------------------------------|

===================================================================

Guitar 1
C#-----------------------------------------------------------------|
G#-----------------------------------------------------------------|
E ---------------------------------5---5---5---5---5---------------|
B -7---7---7---7---7---7---7---7---5---5---5---5---5-------5-5-7-7-|
F#-7---7---7---7---7---7---7---7---3---3---3---3---3-------5-5-7-7-|
B -7---7---7---7---7---7---7---7---------------------------5-5-7-7-|

===================================================================
===================================================================


Chorus 1

Guitar 1
C#-----------------------------------------------------------------|
G#-----------------------------------------------------------------|
E -------------5~~~~~~-5---5---5---------------7~~~~~~-7---7---7---|
B -2---2---2---5~~~~~~-5---5---5---5---5---5---7~~~~~~-7---7---7---|
F#-2---2---2---3~~~~~~-3---3---3---5---5---5---5~~~~~~-5---5---5---|
B -2---2---2-----------------------5---5---5-----------------------|

===================================================================

Guitar 1
C#-----------------------------------------------------------------|
G#-----------------------------------------------------------------|
E -5---5---5---5---------------------------------------------------|
B -5---5---5---5---2---2---2---2---0---0---0---0---0---0---5-5-7-7-|
F#-3---3---3---3---2---2---2---2---0---0---0---0---0---0---5-5-7-7-|
B -----------------2---2---2---2---0---0---0---0---0---0---5-5-7-7-|

===================================================================

Guitar 1
C#-----------------------------------------------------------------|
G#-----------------------------------------------------------------|
E -------------5~~~~~~-5---5---5---------------7~~~~~~-7---7---7---|
B -2---2---2---5~~~~~~-5---5---5---5---5---5---7~~~~~~-7---7---7---|
F#-2---2---2---3~~~~~~-3---3---3---5---5---5---5~~~~~~-5---5---5---|
B -2---2---2-----------------------5---5---5-----------------------|

===================================================================

Guitar 1
C#-----------------------------------------------------------------|
G#-----------------------------------------------------------------|
E -5---5---5---5---------------------------------------------------|
B -5---5---5---5---2---2---2---2---0---0---0---0~~~~~~~~~~~~~~~~~~-|
F#-3---3---3---3---2---2---2---2---0---0---0---0~~~~~~~~~~~~~~~~~~-|
B -----------------2---2---2---2---0---0---0---0~~~~~~~~~~~~~~~~~~-|

===================================================================
===================================================================


Verse 2

Guitar 1
C#-----------------------------------------------------------------|
G#-----------------------------------------------------------------|
E -----------------------------------------------------------------|
B -----------------------------------------------------------------|
F#-------3~~~~~~~~~~~~~~~~~~~~~~~~-------2~~~~~~~~~~~~~~~~~~~~~~~~-|
B -2~~~~---------------------------5~~~~---------------------------|

===================================================================

Guitar 1
C#-----------------------------------------------------------------|
G#-----------------------------------------------------------------|
E -----------------------------------------------------------------|
B -----------------------------------------------------------------|
F#-------3~~~~~~~~~~~~~~~~~~~~~~~~-------5~~~~~~~~~~~~~~~~---------|
B -2~~~~---------------------------5~~~~---------------------------|

===================================================================
===================================================================


Pre Chorus 2

Guitar 1
C#-----------------------------------------------------------------|
G#-----------------------------------------------------------------|
E -5~~~~-9~~~~~~~~~~~~~~~~~~~~~~~~-------7~~~~~~~~~~~~~~~~~~~~~~~~-|
B -5~~~~-9~~~~~~~~~~~~~~~~~~~~~~~~-5~~~~-7~~~~~~~~~~~~~~~~~~~~~~~~-|
F#-3~~~~-7~~~~~~~~~~~~~~~~~~~~~~~~-5~~~~-5~~~~~~~~~~~~~~~~~~~~~~~~-|
B ---------------------------------5~~~~---------------------------|

===================================================================

Guitar 1
C#-----------------------------------------------------------------|
G#-----------------------------------------------------------------|
E ---------------------------------5---5---5---5---5---5-----------|
B -7---7---7---7---7---7---7---7---5---5---5---5---5---5---5-5-7-7-|
F#-7---7---7---7---7---7---7---7---3---3---3---3---3---3---5-5-7-7-|
B -7---7---7---7---7---7---7---7---------------------------5-5-7-7-|

===================================================================
===================================================================


Chorus 2

Guitar 1
C#-----------------------------------------------------------------|
G#-----------------------------------------------------------------|
E -------------5~~~~~~-5---5---5---------------7~~~~~~-7---7---7---|
B -2---2---2---5~~~~~~-5---5---5---5---5---5---7~~~~~~-7---7---7---|
F#-2---2---2---3~~~~~~-3---3---3---5---5---5---5~~~~~~-5---5---5---|
B -2---2---2-----------------------5---5---5-----------------------|

===================================================================

Guitar 1
C#-----------------------------------------------------------------|
G#-----------------------------------------------------------------|
E -5---5---5---5---------------------------------------------------|
B -5---5---5---5---2---2---2---2---0---0---0---0---0---0---5-5-7-7-|
F#-3---3---3---3---2---2---2---2---0---0---0---0---0---0---5-5-7-7-|
B -----------------2---2---2---2---0---0---0---0---0---0---5-5-7-7-|

===================================================================

Guitar 1
C#-----------------------------------------------------------------|
G#-----------------------------------------------------------------|
E -------------5~~~~~~-5---5---5---------------7~~~~~~-7---7---7---|
B -2---2---2---5~~~~~~-5---5---5---5---5---5---7~~~~~~-7---7---7---|
F#-2---2---2---3~~~~~~-3---3---3---5---5---5---5~~~~~~-5---5---5---|
B -2---2---2-----------------------5---5---5-----------------------|

===================================================================

Guitar 1
C#-----------------------------------------------------------------|
G#-----------------------------------------------------------------|
E -5---5---5---5---------------------------------------------------|
B -5---5---5---5---2---2---2---2---0---0---0---7~~~~-7-7~~-7-7-7-7-|
F#-3---3---3---3---2---2---2---2---0---0---0---7~~~~-7-7~~-7-7-7-7-|
B -----------------2---2---2---2---0---0---0---7~~~~-7-7~~-7-7-7-7-|

===================================================================
===================================================================


Interlude 1

Guitar 1 (x6)
C#-----------------------------------------------------------------|
G#-----------------------------------------------------------------|
E -19--19--19--19--16--16--16--16--19--19--19--19--16--16--16--16--|
B -----------------------------------------------------------------|
F#-----------------------------------------------------------------|
B -----------------------------------------------------------------|

===================================================================
===================================================================


Interlude 2

Guitar 1
C#-----------------------------------------------------------------|
G#-----------------------------------------------------------------|
E -----------------------------------------------------------------|
B -2~~~~~~~~~~~~~~~~~~~~~~~~~~~~~~-5~~~~~~~~~~~~~~~~~~~~~~~~~~~~~~-
F#-2~~~~~~~~~~~~~~~~~~~~~~~~~~~~~~-5~~~~~~~~~~~~~~~~~~~~~~~~~~~~~~-
B -2~~~~~~~~~~~~~~~~~~~~~~~~~~~~~~-5~~~~~~~~~~~~~~~~~~~~~~~~~~~~~~-

===================================================================

Guitar 1
C#-----------------------------------------------------------------|
G#-----------------------------------------------------------------|
E -5~~~~~~~~~~~~~~~~~~~~~~~~~~~~~~---------------------------------|
B -5~~~~~~~~~~~~~~~~~~~~~~~~~~~~~~-7~~~~~~~~~~~~~~~~~~~~~~~~~~~~~~-
F#-3~~~~~~~~~~~~~~~~~~~~~~~~~~~~~~-7~~~~~~~~~~~~~~~~~~~~~~~~~~~~~~-
B ---------------------------------7~~~~~~~~~~~~~~~~~~~~~~~~~~~~~~-

===================================================================

Guitar 1
C#-----------------------------------------------------------------|
G#-----------------------------------------------------------------|
E ---------------------------------4~~~~~~~~~~~~~~~~~~~~~~~~~~~~~~-|
B -2~~~~~~~~~~~~~~~~~~~~~~~~~~~~~~-4~~~~~~~~~~~~~~~~~~~~~~~~~~~~~~-
F#-2~~~~~~~~~~~~~~~~~~~~~~~~~~~~~~-2~~~~~~~~~~~~~~~~~~~~~~~~~~~~~~-
B -2~~~~~~~~~~~~~~~~~~~~~~~~~~~~~~---------------------------------

===================================================================

Guitar 1
C#-----------------------------------------------------------------|
G#-----------------------------------------------------------------|
E -5~~~~~~~~~~~~~~~~~~~~~~~~~~~~~~-7~~~~~~~~~~~~~~~~~~~~~~~~~~~~~~-
B -5~~~~~~~~~~~~~~~~~~~~~~~~~~~~~~-7~~~~~~~~~~~~~~~~~~~~~~~~~~~~~~-
F#-3~~~~~~~~~~~~~~~~~~~~~~~~~~~~~~-5~~~~~~~~~~~~~~~~~~~~~~~~~~~~~~-
B -----------------------------------------------------------------

===================================================================
===================================================================


Bridge

Guitar 1
C#-----------------------------------------------------------------|
G#-----------------------------------------------------------------|
E -9~~~~-9-x-x-5~~~~~~~~~~~~~~~~~~~~~~~~~~~~~~~~~~~~~~~~~~~~~~~~~~-|
B -9~~~~-9-x-x-5~~~~~~~~~~~~~~~~~~~~~~~~~~~~~~~~~~~~~~~~~~~~~~~~~~-|
F#-7~~~~-7-x-x-3~~~~~~~~~~~~~~~~~~~~~~~~~~~~~~~~~~~~~~~~~~~~~~~~~~-|
B -----------------------------------------------------------------|

===================================================================

Guitar 1
C#-----------------------------------------------------------------|
G#-----------------------------------------------------------------|
E -----------------------------------------------------------------|
B -5~~~~-5-x-x-9~~~~~~~~~~~~~~~~~~~~~~~~~~~~~~~~~~~~~~~~~~---------|
F#-5~~~~-5-x-x-9~~~~~~~~~~~~~~~~~~~~~~~~~~~~~~~~~~~~~~~~~~---------|
B -5~~~~-5-x-x-9~~~~~~~~~~~~~~~~~~~~~~~~~~~~~~~~~~~~~~~~~~---------|

===================================================================
===================================================================


Chorus 3

Guitar 1
C#-----------------------------------------------------------------|
G#-----------------------------------------------------------------|
E -------------5~~~~~~-5---5---5---------------7~~~~~~-7---7---7---|
B -2---2---2---5~~~~~~-5---5---5---5---5---5---7~~~~~~-7---7---7---|
F#-2---2---2---3~~~~~~-3---3---3---5---5---5---5~~~~~~-5---5---5---|
B -2---2---2-----------------------5---5---5-----------------------|

===================================================================

Guitar 1
C#-----------------------------------------------------------------|
G#-----------------------------------------------------------------|
E -5---5---5---5---------------------------------------------------|
B -5---5---5---5---2---2---2---2---0---0---0---0---0---0---5-5-7-7-|
F#-3---3---3---3---2---2---2---2---0---0---0---0---0---0---5-5-7-7-|
B -----------------2---2---2---2---0---0---0---0---0---0---5-5-7-7-|

===================================================================

Guitar 1
C#-----------------------------------------------------------------|
G#-----------------------------------------------------------------|
E -------------5~~~~~~-5---5---5---4---4---4---7~~~~~~-7---7---7---|
B -2---2---2---5~~~~~~-5---5---5---4---4---4---7~~~~~~-7---7---7---|
F#-2---2---2---3~~~~~~-3---3---3---2---2---2---5~~~~~~-5---5---5---|
B -2---2---2-----------------------5---5---5-----------------------|

===================================================================

Guitar 1
C#-----------------------------------------------------------------|
G#-----------------------------------------------------------------|
E -5---5---5---5---------------------------------------------------|
B -5---5---5---5---2---2---2---2---0---0---0---0~~~~-0-0~~-0-0-0-0-|
F#-3---3---3---3---2---2---2---2---0---0---0---0~~~~-0-0~~-0-0-0-0-|
B -----------------2---2---2---2---0---0---0---0~~~~-0-0~~-0-0-0-0-|

===================================================================

Guitar 1
C#-----------------------------------------------------------------|
G#-----------------------------------------------------------------|
E -5---5---5---5---------------------------------------------------|
B -5---5---5---5---2---2---2---2---0---0---0---7~~~~~~~~~~~~~~~~~~-|
F#-3---3---3---3---2---2---2---2---0---0---0---7~~~~~~~~~~~~~~~~~~-|
B -----------------2---2---2---2---0---0---0---7~~~~~~~~~~~~~~~~~~-|

===================================================================
===================================================================
===================================================================


===================================================================
Guitar 2
===================================================================


Verse 1

===================================================================
Rest
===================================================================


===================================================================
===================================================================


Pre Chorus 1

===================================================================
Rest
===================================================================


===================================================================

Guitar 2
C#-----------------------------------------------------------------|
G#-----------------------------------------------------------------|
E -----------------------------------------------------------------|
B ---------------------------------------------------------5-5-7-7-|
F#---------------------------------------------------------5-5-7-7-|
B ---------------------------------------------------------5-5-7-7-|

===================================================================
===================================================================


Chorus 1

Guitar 2
C#-17--19--19--19~~~~~---------14--15--15--15--14~~~~~~~~~-15~~~~~-|
G#---------------------15~~~~~-------------------------------------|
E -----------------------------------------------------------------|
B -----------------------------------------------------------------|
F#-----------------------------------------------------------------|
B -----------------------------------------------------------------|

===================================================================

Guitar 2
C#-----------------19~~~~~-15~~~~~-15--15--14----------------------|
G#-17~~~~~~~~~~~~~-----------------------------15~~~~~~~~~---------|
E -----------------------------------------------------------------|
B -----------------------------------------------------------------|
F#-----------------------------------------------------------------|
B -----------------------------------------------------------------|

===================================================================

Guitar 2
C#-17--19--19------------------14--15--15--15--14~~~~~~~~~-15~~~~~-|
G#-------------15~~~~~~~~~-15--------------------------------------|
E -----------------------------------------------------------------|
B -----------------------------------------------------------------|
F#-----------------------------------------------------------------|
B -----------------------------------------------------------------|

===================================================================

Guitar 2
C#-----------------19~~~~~-15~~~~~-15--15--14----------------------|
G#-17~~~~~~~~~~~~~-----------------------------15~~~~~~~~~~~~~~~~~-|
E -----------------------------------------------------------------|
B -----------------------------------------------------------------|
F#-----------------------------------------------------------------|
B -----------------------------------------------------------------|

===================================================================
===================================================================


Verse 2

Guitar 2 (x3)
C#-----------------------------------------------------------------|
G#-----------------------------------------------------------------|
E -9---x---x---9---x---x---9---x---x---9---x---x---9---x---x---x---|
B -----------------------------------------------------------------|
F#-----------------------------------------------------------------|
B -----------------------------------------------------------------|

===================================================================

Guitar 2
C#-----------------------------------------------------------------|
G#-----------------------------------------------------------------|
E -9---x---x---9---x---x---9---x---x---9---x---x---16--14--12------|
B -------------------------------------------------------------16--|
F#-----------------------------------------------------------------|
B -----------------------------------------------------------------|

===================================================================
===================================================================


Pre Chorus 2

Guitar 2
C#-------15~~~~~~~~~~~~~~~~~~~~~~~-------14~~~~~~~~~~~~~~~~~~~~~~~-|
G#-17~~~---------------------------15~~~---------------------------|
E -----------------------------------------------------------------|
B -----------------------------------------------------------------|
F#-----------------------------------------------------------------|
B -----------------------------------------------------------------|

===================================================================

Guitar 2
C#-----------------------------------------------------------------|
G#-----------------------------------------------------------------|
E -14--14--14--14--14--14--14--14--16--16--16--16--16--16----------|
B ---------------------------------------------------------5-5-7-7-|
F#---------------------------------------------------------5-5-7-7-|
B ---------------------------------------------------------5-5-7-7-|

===================================================================
===================================================================


Chorus 2

Guitar 2
C#-17--19--19--19~~~~~---------14--15--15--15--14~~~~~~~~~-15~~~~~-|
G#---------------------15~~~~~-------------------------------------|
E -----------------------------------------------------------------|
B -----------------------------------------------------------------|
F#-----------------------------------------------------------------|
B -----------------------------------------------------------------|

===================================================================

Guitar 2
C#-----------------19~~~~~-15~~~~~-15--15--14----------------------|
G#-17~~~~~~~~~~~~~-----------------------------15~~~~~~~~~---------|
E -----------------------------------------------------------------|
B -----------------------------------------------------------------|
F#-----------------------------------------------------------------|
B -----------------------------------------------------------------|

===================================================================

Guitar 2
C#-17--19--19------------------14--15--15--15--14~~~~~~~~~-15~~~~~-|
G#-------------15~~~~~~~~~-15--------------------------------------|
E -----------------------------------------------------------------|
B -----------------------------------------------------------------|
F#-----------------------------------------------------------------|
B -----------------------------------------------------------------|

===================================================================

Guitar 2
C#-----------------19~~~~~-15~~~~~-15--14--------------------------|
G#-17~~~~~~~~~~~~~-------------------------15--13~~~~~~~~~~~~~~~~~-|
E -----------------------------------------------------------------|
B -----------------------------------------------------------------|
F#-----------------------------------------------------------------|
B -----------------------------------------------------------------|

===================================================================
===================================================================


Interlude 1

Guitar 2 (x6)
C#-------------------------------------------------19--19--19--19--|
G#-----------------------------------------------------------------|
E ---------------------------------16--16--16--16------------------|
B -17--17--17--17--14--14--14--14----------------------------------|
F#-----------------------------------------------------------------|
B -----------------------------------------------------------------|

===================================================================
===================================================================


Interlude 2

Guitar 2 (x2)
C#-----------------------------------------------------------------|
G#-------------------------------------------------15--15--15--15--|
E ---------------------------------16--16--16--16------------------|
B -17--17--17--17--14--14--14--14----------------------------------|
F#-----------------------------------------------------------------|
B -----------------------------------------------------------------|

===================================================================

Guitar 2
C#-----------------------------------------------------------------|
G#---------------------------------15--15--15--15------------------|
E -------------------------------------------------16--16--16--16--|
B -17--17--17--17--14--14--14--14----------------------------------|
F#-----------------------------------------------------------------|
B -----------------------------------------------------------------|

===================================================================

Guitar 2
C#-----------------------------------------------------------------|
G#---------------------------------15--15--15--15--15--15--15--15--|
E -----------------------------------------------------------------|
B -17--17--17--17--14--14--14--14----------------------------------|
F#-----------------------------------------------------------------|
B -----------------------------------------------------------------|

===================================================================
===================================================================


Bridge

===================================================================
Rest
===================================================================


===================================================================
===================================================================


Chorus 3

Guitar 2
C#-17--19--19--19~~~~~---------14--15--15--15--14~~~~~~~~~-15~~~~~-|
G#---------------------15~~~~~-------------------------------------|
E -----------------------------------------------------------------|
B -----------------------------------------------------------------|
F#-----------------------------------------------------------------|
B -----------------------------------------------------------------|

===================================================================

Guitar 2
C#-----------------19~~~~~-15~~~~~-15--15--14----------------------|
G#-17~~~~~~~~~~~~~-----------------------------15~~~~~~~~~---------|
E -----------------------------------------------------------------|
B -----------------------------------------------------------------|
F#-----------------------------------------------------------------|
B -----------------------------------------------------------------|

===================================================================

Guitar 2
C#-17--19--19------------------14--15--15--15--14~~~~~~~~~-15~~~~~-|
G#-------------15~~~~~~~~~-15--------------------------------------|
E -----------------------------------------------------------------|
B -----------------------------------------------------------------|
F#-----------------------------------------------------------------|
B -----------------------------------------------------------------|

===================================================================

Guitar 2
C#-----------------19~~~~~-15~~~~~-15--15--14----------------------|
G#-17~~~~~~~~~~~~~-----------------------------15~~~~~~~~~~~~~~~~~-|
E -----------------------------------------------------------------|
B -----------------------------------------------------------------|
F#-----------------------------------------------------------------|
B -----------------------------------------------------------------|

===================================================================

Guitar 2
C#-----------------19~~~~~-15~~~~~-15--14--------------------------|
G#-17~~~~~~~~~~~~~-------------------------15--13~~~~~~~~~~~~~~~~~-|
E -----------------------------------------------------------------|
B -----------------------------------------------------------------|
F#-----------------------------------------------------------------|
B -----------------------------------------------------------------|

===================================================================
===================================================================
===================================================================


Tab Legend
h  - hammer-on
p  - pull-off
/  - slide up
\  - slide down
ps/- pickslide up
ps\- pickslide down
~  - let ring
pm.- palm mute
b  - bend
r  - return from bend
t  - finger tapping
*  - harmonic
x  - dead note
^  - Whammy bar
^\ - Whammy bar (hold down)

That’s the end of it! I hope this helped, and be sure to check out my cover if you are
having problems with the tab. Thanks, oh and one last thing... ROCK OUT!!!!
Tap to rate this tab
# A B C D E F G H I J K L M N O P Q R S T U V W X Y Z