Song name
# A B C D E F G H I J K L M N O P Q R S T U V W X Y Z

Three Days Grace - Expectations tab

Three Days Grace
Expectations
Transit of Venus

This is my first full tab so PLEASE RATE. If you have any corrections or
suggestions please leave a comment.

Drop D


intro(keyboard)
e--16-16---16-15-15---15-14-14--------19-19---19-18-18---18-17-17-16----|
b------------------------------14---------------------------------------|
g-----------------------------------------------------------------------|
d-----------------------------------------------------------------------|
a-----------------------------------------------------------------------|
d-----------------------------------------------------------------------|


intro(guitar)
e----------------------------| x3
b----------------------------|
g--6---6-----9-9-9-6--4------|
d--6---6-----9-9-9-6--4------|
a--4---4-----7-7-7-4--2------|
d----------------------------|
then this
e------------------------------------|
b------------------------------------|
g--6---6-------11-11-11-9--6--4-6----|
d--6---6-------11-11-11-9--6--4-6----|
a--4---4-------9--9--9--7--4--2-4----|
d------------------------------------|


verse
e------------------------------------------| x4
b------------------------------------------|
g--6--6----6--6------11-11-11-9--6--4-6----|
d--6--6----6--6------11-11-11-9--6--4-6----|
a--4--4----4--4------9--9--9--7--4--2-4----|
d------------------------------------------|


chorus
e----------------------------------------------------------------------| x2
b----------------------------------------------------------------------|
g--6---6-------------------4-4-4-------6---6---------------------------|
d--6---6---2---2---4---4---4-4-4-------6---6----2---2---0---0---5-5-5--|
a--4---4---2---2---4---4---2-2-2-------4---4----2---2---0---0---5-5-5--|
d----------2---2---4---4------------------------2---2---0---0---5-5-5--|


verse
e-----------------------------------------------| x4
b-----------------------------------------------|
g--6----6--6----6--6------11-11-11-9--6--4------|
d--6----6--6----6--6------11-11-11-9--6--4------|
a--4----4--4----4--4------9--9--9--7--4--2------|
d-----------------------------------------------|






then play the chorus the same way as above





e--------------------------------------------------------------|
b--------------------------------------------------------------|
g--6~------------11-11-11-9--6--4-6~---11-11-11-9--6--4-6~-----|
d--6~------------11-11-11-9--6--4-6~---11-11-11-9--6--4-6~-----|
a--4~------------9--9--9--7--4--2-4~---9--9--9--7--4--2-4~-----|
d--------------------------------------------------------------|

-----------------------------|
-----------------------------|
--11-11-11-9--6--4-6~-6~-6~--|
--11-11-11-9--6--4-6~-6~-6~--|
--9--9--9--7--4--2-4~-4~-4~--|
-----------------------------|

final chorus
e----------------------------------| x4
b----------------------------------|
g----------------------------------|
d--4---4---0---0---7---7---2---2---|
a--4---4---0---0---7---7---2---2---|
d--4---4---0---0---7---7---2---2---|



outro
e------------------------------------------------------|
b------------------------------------------------------|
g--6---6-----9-9-9-6--4-6---6-----11-11-11-9--6--4-6---|
d--6---6-----9-9-9-6--4-6---6-----11-11-11-9--6--4-6---|
a--4---4-----7-7-7-4--2-4---4-----9--9--9--7--4--2-4---|
d------------------------------------------------------|
Tap to rate this tab
 
# A B C D E F G H I J K L M N O P Q R S T U V W X Y Z