Song name
# A B C D E F G H I J K L M N O P Q R S T U V W X Y Z

Three Days Grace - Expectations tab

Band: Three Days Grace
Album: Transit Of Venus
Song: Expectations
Tuning: Drop D

This song is just awesome and I've tried my best to tab it out.
Hope you'll like it :)

Riff: 00.12-00.16

e--------------------------------------------|
B--------------------------------------------|
G--------------------------------------------|
D----11-11--141414-11-9h11-------------------|
A----11-11--141414-11-9h11-------------------|
D----11-11--141414-11-9h11-------------------|

Riff: 00.16-00.23

e--------------------------------------------|
B--------------------------------------------|
G--------------------------------------------|
D----11--141414-11-9h11----------------------|
A----11--141414-11-9h11----------------------|
D----11--141414-11-9h11----------------------|

Riff: 00.24-00.27

e--------------------------------------------|
B--------------------------------------------|
G--------------------------------------------|
D----11--161616-14-11-9h11-------------------|
A----11--161616-14-11-9h11-------------------|
D----11--161616-14-11-9h11-------------------|

Riff: Verse

e--------------------------------------------|
B--------------------------------------------|
G--------------------------------------------|
D----11-11-161616-14-11-9h11-----------------|
A----11-11-161616-14-11-9h11-----------------|
D----11-11-161616-14-11-9h11-----------------|

Riff: Chorus 1&2 ( Just the chords, figure out the rhythm on your own.isn't that hard.)

e------------------------------------------------------|
B------------------------------------------------------|
G------------------------------------------------------|
D----11--2--4--7----11--2--0--5------------------------| 2 Times, then straight to
A----11--2--4--7----11--2--0--5------------------------|        Verse Riff.
D----11--2--4--7----11--2--0--5------------------------|

Riff: Verse  After Chorus 2 (01.50-02.05)

e---------------------------------------------------------------------------|
B---------------------------------------------------------------------------|
G---------------------------------------------------------------------------|
D----11---------161616-14-11-9h11---161616-14-11-9h11--161616-14-11-9h11----|
A----11---------161616-14-11-9h11---161616-14-11-9h11--161616-14-11-9h11----|
D----11---------161616-14-11-9h11---161616-14-11-9h11--161616-14-11-9h11----|

Riff: Verse (02.05-02.10)

e---------------------------------------------|
B---------------------------------------------|
G---------------------------------------------|
D--11-11-161616-14-11-9h11--------------------|
A--11-11-161616-14-11-9h11--------------------|
D--11-11-161616-14-11-9h11--------------------|

Riff: Chorus 3 (Again just the chords)

e---------------------------------------------|
B---------------------------------------------|
G---------------------------------------------|
D---4--0--7--2--------------------------------|    4 Times!
A---4--0--7--2--------------------------------|
D---4--0--7--2--------------------------------|

Final Riff:

e-----------------------------------------------|
B-----------------------------------------------|
G-----------------------------------------------|
D--11-11-141414-11-9h11---11--161616-14-11-9h11-|
A--11-11-141414-11-9h11---11--161616-14-11-9h11-|
D--11-11-141414-11-9h11---11--161616-14-11-9h11-|

So, I hope you like it.
Ps, you can ad a vibrato on every 11' Fret chord, so it will sound like the the record.
Please tell me my mistakes if you find any!

And THANKS to 3DG for the awesome music you give us, rock on!
Tap to rate this tab
 
# A B C D E F G H I J K L M N O P Q R S T U V W X Y Z