Song name
# A B C D E F G H I J K L M N O P Q R S T U V W X Y Z

Three Days Grace - Anonymous tab

Band: Three Days Grace
Song: Anonymous 
Tuning: Drop D
Tabbed By: shredforever

Worked hard on this tab and i think its pretty accurate.
The rhythm in the chorus can be played differently I just
picked a simple way to tab it out to help. 

Verse
e|-------------------------------------------------------------|
B|-------------------------------------------------------------|
G|---------------7-----------8-7---5---------2-3-----------3---| x2
D|-----5-----7-8---------5-------8---7-----------5-3-2-----3---|
A|---5---5-------------5---5---------------3-----------5-3-1---|
D|-5-------5---------5-------------------3---------------------| 

Chorus
e|--------------------------------------------------------|
B|-3---3---3----------------------------------------------|
G|-2---2---2---4-4--4-4-4---------------------------------|
D|-0---0---0---3-3--3-3-3---8---8---8---10-10--10-10-10---|
A|-0---0---0---3-3--3-3-3---8---8---8---10-10--10-10-10---|
D|-0---0---0---3-3--3-3-3---8---8---8---10-10--10-10-10---|

e|-----------------------------------------------------|
B|-3---3---3-------------------------------------------|
G|-2---2---2---4-4--4-4-4------------------------------|
D|-0---0---0---3-3--3-3-3---5---5---5---5-5-8-8-7-10---|
A|-0---0---0---3-3--3-3-3---5---5---5---5-5-8-8-7-10---|
D|-0---0---0---3-3--3-3-3---5---5---5---5-5-8-8-7-10---|

e|--------------------------------------------------------|
B|-3---3---3----------------------------------------------|
G|-2---2---2---4-4--4-4-4---------------------------------|
D|-0---0---0---3-3--3-3-3---8---8---8---10-10--10-10-10---|
A|-0---0---0---3-3--3-3-3---8---8---8---10-10--10-10-10---|
D|-0---0---0---3-3--3-3-3---8---8---8---10-10--10-10-10---|

e|-----------------------------|
B|-----------------------3-----|
G|-----------------------2-----|
D|-8---8---7-8-7-5--8-10-0-----|
A|-8---8---7-8-7-5--8-10-0-----|
D|-8---8---7-8-7-5--8-10-0-----|

Verse

Chorus 2
e|--------------------------------------------------------|
B|-3---3---3----------------------------------------------|
G|-2---2---2---4-4--4-4-4---------------------------------|
D|-0---0---0---3-3--3-3-3---8---8---8---10-10--10-10-10---|
A|-0---0---0---3-3--3-3-3---8---8---8---10-10--10-10-10---|
D|-0---0---0---3-3--3-3-3---8---8---8---10-10--10-10-10---|

e|-----------------------------------------------------|
B|-3---3---3-------------------------------------------|
G|-2---2---2---4-4--4-4-4------------------------------|
D|-0---0---0---3-3--3-3-3---5---5---5---5-5-8-8-7-10---|
A|-0---0---0---3-3--3-3-3---5---5---5---5-5-8-8-7-10---|
D|-0---0---0---3-3--3-3-3---5---5---5---5-5-8-8-7-10---|

e|--------------------------------------------------------|
B|-3---3---3----------------------------------------------|
G|-2---2---2---4-4--4-4-4---------------------------------|
D|-0---0---0---3-3--3-3-3---8---8---8---10-10--10-10-10---|
A|-0---0---0---3-3--3-3-3---8---8---8---10-10--10-10-10---|
D|-0---0---0---3-3--3-3-3---8---8---8---10-10--10-10-10---|

e|-------------------------|
B|-------------------------|
G|-------------------------|
D|-8---8---7-8-7-----------|
A|-8---8---------10-8------|
D|-8---8--------------10---|

Bridge
e|-----------------------------------------------------------------|
B|-----------------------------------------------------------------|
G|--------------------12-10-10-----------------------12-10-10------| x4
D|-12---12---10-12-12----------10---8---8---10-12-12----------10---|
A|-12---12---10-12-12-10--8--8-10---8---8---10-12-12-10--8--8-10---|
D|-12---12---10-12-12----------10---8---8---10-12-12----------10---|

e|-----------------------------|
B|-----------------------------|
G|-7---5-------3---7---5-------|
D|-7---5---5---3---7---5---5---|
A|-5---3---5---1---5---3---5---|
D|---------5---------------5---|
(I am not sure if these are the chords they play here but
i think they still work.)

Final Chorus
e|--------------------------------------------------------|
B|-3---3---3----------------------------------------------|
G|-2---2---2---4-4--4-4-4---------------------------------|
D|-0---0---0---3-3--3-3-3---8---8---8---10-10--10-10-10---|
A|-0---0---0---3-3--3-3-3---8---8---8---10-10--10-10-10---|
D|-0---0---0---3-3--3-3-3---8---8---8---10-10--10-10-10---|

e|-----------------------------------------------------|
B|-3---3---3-------------------------------------------|
G|-2---2---2---4-4--4-4-4------------------------------|
D|-0---0---0---3-3--3-3-3---5---5---5---5-5-8-8-7-10---|
A|-0---0---0---3-3--3-3-3---5---5---5---5-5-8-8-7-10---|
D|-0---0---0---3-3--3-3-3---5---5---5---5-5-8-8-7-10---|

e|--------------------------------------------------------|
B|-3---3---3----------------------------------------------|
G|-2---2---2---4-4--4-4-4---------------------------------|
D|-0---0---0---3-3--3-3-3---8---8---8---10-10--10-10-10---|
A|-0---0---0---3-3--3-3-3---8---8---8---10-10--10-10-10---|
D|-0---0---0---3-3--3-3-3---8---8---8---10-10--10-10-10---|

e|-----------------------------------------------------------------------------------------|
B|-----------------------------------------------------------------------------------3-----|
G|-----------------------------------------------------------------------------------2-----|
D|-8---8---8---10-10--10-10-10---8---8---8---10-10--10-10-10---8---8---7-8-7-5--8-10-0-----|
A|-8---8---8---10-10--10-10-10---8---8---8---10-10--10-10-10---8---8---7-8-7-5--8-10-0-----|
D|-8---8---8---10-10--10-10-10---8---8---8---10-10--10-10-10---8---8---7-8-7-5--8-10-0-----|
Tap to rate this tab
 
# A B C D E F G H I J K L M N O P Q R S T U V W X Y Z