Song name
# A B C D E F G H I J K L M N O P Q R S T U V W X Y Z

Three Days Grace - Happiness tab

Artist: Three Days Grace
Song: Happiness
Tuning: Drop D
Tabbed by: shredforever

Awesome new song from Three Days Grace's new album Transit of Venus!
Hope you guys like the tab, i have one little part left to figure out
but other than that it should be good.

Intro
e|-------5-------5-------5---------------5-------5-------------|
B|-3---3---3-3-----3-3-----3-6-5---3---3---3-3-----3-6-5-------|
G|-------------------------------2-----------------------2-3---|
D|-------------------------------------------------------------|
A|-------------------------------------------------------------|
D|-------------------------------------------------------------|

e|-------5-------5-------5---------------5-------5-------------|
B|-3---3---3-3-----3-3-----3-6-5---3---3---3-3-----3-6-5-------|
G|-------------------------------2-----------------------2-5---|
D|-------------------------------------------------------------|
A|-------------------------------------------------------------|
D|-------------------------------------------------------------|

Riff
e|-----------------------------------------------------------------|
B|-----------------------------------------------------------------|
G|-----------------------------------------------------------------|
D|-------------------------------------------------------8---8-8---|
A|--------------------------8h7--------------------8h7---8---8-8---|
D|-0---0-8p7p0---8p7p0---8p7---h7-0---0-8p7p0---8p7---h7-8---8-8---|

e|--------------------------------------------------------------------|
B|--------------------------------------------------------------------|
G|--------------------------------------------------------------------|
D|-------------------------------------------------------10---10-10---|
A|--------------------------8h7--------------------8h7---10---10-10---|
D|-0---0-8p7p0---8p7p0---8p7---h7-0---0-8p7p0---8p7---h7-10---10-10---|

Verse
e|---------------------------------------------------------------------------------------|
B|---------------------------------------------------------------------------------------|
G|--14---14-14-----14-14-12-15---15-15-----15-15-12-14---14-14-----14-14-12-15---15-15---|
D|---------------------------------------------------------------------------------------|
A|--12---12-12-----12-12-10-13---13-13-----13-13-10-12---12-12-----12-12-10-13---13-13---|
D|---------------------------------------------------------------------------------------|

e|-----------------------------------------------------------------------------------------------|
B|-----------------------------------------------------------------------------------------------|
G|-15-15-12-14---14-14-----14-14-12-15---15-15-----15-15-12-14---14-14-----15-15-12-14---14-14---|
D|-----------------------------------------------------------------------------------------------|
A|-13-13-10-12---12-12-----12-12-10-13---13-13-----13-13-10-12---12-12-----13-13-10-12---12-12---|
D|-----------------------------------------------------------------------------------------------|

Chorus
e|--------------------------------------------------|
B|--------------------------------------------------|
G|--------------------------------------------------| x2
D|-0-0-0-0-0---3-3-3-3-3---5-5-5-5-5---8-----7------|
A|-0-0-0-0-0---3-3-3-3-3---5-5-5-5-5---8-----7------|
D|-0-0-0-0-0---3-3-3-3-3---5-5-5-5-5---8-----7------|

Riff

Verse

Chorus

Bridge (there is a cool little part before this but i am still working on tabbing that)
e|-----------------------------------------------|
B|-----------------------------------------------|
G|-----------------------------------------------|
D|-8-7-8-7-7-7---3-3-3---8-8-7-7-7-3-----10------|
A|-8-7-8-7-7-7---3-3-3---8-8-7-7-7-3-----10------|
D|-8-7-8-7-7-7---3-3-3---8-8-7-7-7-3-----10------|

e|------------------------------|
B|------------------------------|
G|------------------------------|
D|-8-7-8-7-7-7---3-3-3---8------|
A|-8-7-8-7-7-7---3-3-3---8------|
D|-8-7-8-7-7-7---3-3-3---8------|

Riff

Final Chorus
-Play the same notes as the normal chorus except with
a different rhythm, just listen for it.

Riff x2
-At the end of second playthrough end with
e|------|                     e|------------|
B|------| instead of playing  B|------------|
G|------|                     G|------------|
D|--10--|                     D|--10-10-10--|
A|--10--|                     A|--10-10-10--|
D|--10--|                     D|--10-10-10--|

Legend
p - pulloff
h - hammer
Tap to rate this tab
 
# A B C D E F G H I J K L M N O P Q R S T U V W X Y Z