Song name
# A B C D E F G H I J K L M N O P Q R S T U V W X Y Z

Three Days Grace - Give In To Me tab

Three Days Grace: Give In To Me

Transcribed by: mysticguitar77

YouTube Username: MysticGuitar77

Date last modified: January 6, 2013

Tuning: Standard (E,A,D,G,B,E)

Riff 1 (clean w/ some chorus)
E|-------------------------------|
B|-------------------------------|
G|-------------------0-------0---|
D|---2-4-5-4-2-----2-------4---4-|
A|-2-----------2h3-----3/5-------|
E|-------------------------------|

Play Riff 1 x5   "She always takes it with a heart of stone..."

Riff 2   "Don't try to understand me..."
E|---------0---------------0---------------0-----------------|
B|-------------0---------------0---------------0-------------|
G|-----4---------------2---------------4---------------0-----|
D|---4---4---4---4---2---2---2---2---4---4---4---4---4---4---|
A|-2---------------0---------------2---------------5-------5-|
E|-----------------------------------------------------------|

Riff 3   "Love is a feeling..."
E|----0------0------0--|----0-0---|---------|
B|----3------3------3--|----3-3---|---------|
G|----0---5--2------0--|-5--0-2---|---------|
D|-2------5--0---2-----|-5--2-0---|---------| (let all chords ring out)
A|-2------3------2-----|-3--------|-3~--2~--|
E|-0-------------0-----|----------|---------|
                        1st ending|2nd ending

Fill 1 (w/ distortion, other guitar plays Riff 1 underneath)
E|---------------------------------|
B|---------------------------------|
G|----9-11-11h12-11-9------/12-11~-|
D|-/9-----------------9/10---------|
A|---------------------------------|
E|---------------------------------|

Play Riff 1 x3   "You always knew just how to make me cry..."
Play Riff 2 x1   "Don't try to understand me..."
Play Riff 3 x1   "Love is a feeling..."

Riff 4   "You and your friends would love to hang me until..."
E|---------------------------------------0-----------0-|
B|---------------------------------------3-----------3-|
G|-2-2-2-2-2-2-2-2-------------x-x--x----0-----------0-|
D|-2-2-2-2-2-2-2-2-5-5-5-5-5-5-x-x--x-2-----2-----2----| (let chords ring)
A|-0-0-0-0-0-0-0-0-5-5-5-5-5-5-x-x--x-2-----2-0-0-2----|
E|-----------------3-3-3-3-3-3-x-x--x-0-----0-0-0-0----|

         "You won't be laughing girl when I'm not around..."
E|-----------------------------------------------------|
B|-----------------------------------------------------|
G|-2-2-2-2-2-2-2-2-------------x-x--x-4--4--4--7--7--7-|
D|-2-2-2-2-2-2-2-2-5-5-5-5-5-5-x-x--x-4--4--4--7--7--7-|
A|-0-0-0-0-0-0-0-0-5-5-5-5-5-5-x-x--x-2--2--2--5--5--5-|
E|-----------------3-3-3-3-3-3-x-x--x------------------|

Play Riff 1 x2   "Give in to me..."
                 (2nd time through, ends after the slide)
Play Riff 3 x2   "Love is a feeling..." 
                 (play with 1st ending 3 times)

Riff 3 (final ending)
E|-------------|
B|-------------|
G|-5----5--4~--|
D|-5----5--4~--|
A|-3--0h3--2~--|
E|-------------|

Enjoy!!
Tap to rate this tab
# A B C D E F G H I J K L M N O P Q R S T U V W X Y Z