Song name
# A B C D E F G H I J K L M N O P Q R S T U V W X Y Z

Three Days Grace - Sob tab

-----------------------------------------|
-----------------------------------------|
-----------------------------------------|
-------12----------10--------5-----8-----|    x14
----12----12----10----10---5-----8-----7-|
-12----------10----------5-----8-----7---|
I'm gonna tell you a story...

-----------------------------------------|
-----------------------------------------|
-----------------------------------------|
-8--------11--------8--------11----------|    x1
-8--------11--------8--------11----------|
-8--------11--------8--------11----------|
Do you think that I tell a fib...

-----------------------------------------|
-----------------------------------------|
-----------------------------------------|
-12--------10--------12--------10----8---|    x2
-12--------10--------12--------10----8---|
-12--------10--------12--------10----8---|
Young man, how could you prove me wrong...

-----------------------------------------|
-----------------------------------------|
-----------------------------------------|
-------12----------10--------5-----8-----|     x6
----12----12----10----10---5-----8-----7-|
-12----------10----------5-----8-----7---|
Well sweet Jane she lived down that road...

-----------------------------------------|
-----------------------------------------|
-----------------------------------------|
-8--------11--------8--------11----------|    x1
-8--------11--------8--------11----------|
-8--------11--------8--------11----------|
Do you think that I tell a fib...

-----------------------------------------|
-----------------------------------------|
-----------------------------------------|
-12--------10--------12--------10----8---|    x2
-12--------10--------12--------10----8---|
-12--------10--------12--------10----8---|
Young man, how could you prove me wrong...

(guitar 2 solo, I'm not able to tab this)
guitar 1 during the guitar 2 solo:
-----------------------------------------|
-----------------------------------------|
-----------------------------------------|
-------12----------10--------5-----8-----|    x4
----12----12----10----10---5-----8-----7-|
-12----------10----------5-----8-----7---|


-----------------------------------------|
-----------------------------------------|
-----------------------------------------|
-8--------11--------8--------11----------|    x1
-8--------11--------8--------11----------|
-8--------11--------8--------11----------|
Do you think that I tell a fib...

-----------------------------------------|
-----------------------------------------|
-----------------------------------------|
-12--------10--------12--------10----8---|    x4
-12--------10--------12--------10----8---|
-12--------10--------12--------10----8---|
Young man, how could you prove me wrong...

-------------|
-------------|
-------------|
-12~---------|
-12~---------|
-12~---------|
Tap to rate this tab
# A B C D E F G H I J K L M N O P Q R S T U V W X Y Z