Song name
# A B C D E F G H I J K L M N O P Q R S T U V W X Y Z

Three Days Grace - Born Like This tab

Intro pt.1
e--------------------------| x4
b--------------------------|
g--------------------------|
d--------------------------|
a--------------------------|
d-0--0-0-2--3--6--6-6-5-5--|
  *  * * *  *  *  * * * *

Intro pt.2
e--------------------------| x4
b--------------------------|
g-2--2-2-4--5--8--8-8-7-7--|
d-0--0-0-2--3--6--6-6-5-5--|
a-0--0-0-2--3--6--6-6-5-5--|
d-0--0-0-2--3--6--6-6-5-5--|

Pre-Chorus

let ring------let ring------let ring------

e--------------------------------------------------------------------------|
b--------------------------------------------------------------------------|
g-----------------------------------------3-3-3-3-3-3-3-3------------------|
d-10---------7--------------10------------1-1-1-1-1-1-1-1--10-10----10--10-|
a-10---------7--------------10------------1-1-1-1-1-1-1-1---8--8-x-x-8--8--|
d-10---------7--------------10------------1-1-1-1-1-1-1-1---8--8-x-x-8--8--|

cont.
e----|
b----|
g---3|
d---1|
a---1|
d-x-1|

Chorus
e--------------------------| x8
b--------------------------|
g-2--2-2-4--5--8--8-8-7-7--|
d-0--0-0-2--3--6--6-6-5-5--|
a-0--0-0-2--3--6--6-6-5-5--|
d-0--0-0-2--3--6--6-6-5-5--|

Pre-Chorus

Chorus

Bridge

let ring------let ring------let ring------let ring------let ring-------

e-----------------------------------------------------------------------|
b-----------------------------------------------------------------------|
g-----------------------------------------------------------------------|
d-10----------7-------------10------------7-------------10------------7-|
a-10----------7-------------10------------7-------------10------------7-|
d-10----------7-------------10------------7-------------10------------7-|

cont.

e-------------------------------------|
b-------------------------------------|
g-3-3-3-3-3-3-3-3-------------------3-|
d-1-1-1-1-1-1-1-1---10-10----10-10--1-|
a-1-1-1-1-1-1-1-1---8--8-----8--8---1-|
d-1-1-1-1-1-1-1-1-x-8--8-x-x-8--8-x-1-|

*=palm mute
x=dead note

After that repeat some parts.
Hope you enjoy rate and leave the comment!
Tap to rate this tab
# A B C D E F G H I J K L M N O P Q R S T U V W X Y Z