Song name
# A B C D E F G H I J K L M N O P Q R S T U V W X Y Z

Three Days Grace - Sign Of The Times tab

Tuning: drop D (D A D G B e)

Note: for the verses, I did not include the exact amount of times each note is played

Intro

... in the devil's eyes

E|---------------------------------------------------|
B|---------10----------------------------------------|
G|------------9--------------------------------------|
D|--------------9------------------------------------|
A|---------------------------------------------------|
D|---------------------------------------------------|

E|---------------------------------------------------|
B|-12-----12--------13---12---12---10----------------|
G|-12--------12-----12---12---12---9------7----------|
D|-9------------9---10---9----9----9------7----------|
A|----------------------------------------5----------|
D|---------------------------------------------------|

E|--0---7--------7-------8---------------------------|
B|----------12-----8-----8---10---12---10------------|
G|----------12-------9---9---9----12---9----7--------|
D|----------9----------------9----9----9----7--------|
A|------------------------------------------5--------|
D|---------------------------------------------------|

E|---------------------------------------------------|
B|-------12-12----------12-12---------12-12------12--|
G|----12-------12-----9------------12-------12---11--|
D|-10---------------9-----------10---------------9---|
A|---------------------------------------------------|
D|---------------------------------------------------|

Verse

E|---------------------------------------------------|
B|---------------------------------------------------|
G|---------------------------------------------------| 4x
D|---------------------------------------------------|
A|---------------------------------------------------|
D|-0h2-2-2-2-2-2-2-2-0h2-2-2-2-2-2-2-2-2-2-----------|

E|---------------------------------------------------|
B|---------------------------------------------------|
G|---------------------------------------------------|
D|---------------------------------------------------|
A|---------------------------------------------------|
D|-2/7-7-7-7-7-7-7-7-7-7-7-5-5-5-5-5-5-5-5-5-5-5-5---|

E|---------------------------------------------------|
B|---------------------------------------------------|
G|---------------------------------------------------|
D|-------------------------------------------------2-|
A|-------------------------------------------------2-|
D|-0-0-0-0-0-0-0-0-0-0-0-0-0-0-0-0-0-0-0-0-0-0-0-0-2-|

Interlude

E|-7-------7-----8-----------------------------------|
B|---8-------8---8---10---12---10--------------------|
G|-----9-------9-9---9----12---9----7----------------|
D|-------------------9----9----9----7----------------|
A|----------------------------------5----------------|
D|---------------------------------------------------|

E|---------------------------------------------------|
B|-------12-12----------12-12---------12-12----------|
G|----12-------12-----9------------12-------12-------|
D|-10---------------9-----------10-------------------|
A|---------------------------------------------------|
D|---------------------------------------------------|

E|---------------------------------------------------|
B|-----12-12-----------------------------------------|
G|---9-----------------------------------------------|
D|-9-------------------------------------------------|
A|---------------------------------------------------|
D|---------------------------------------------------|

Verse 2

E|---------------------------------------------------|
B|---------------------------------------------------|
G|---------------------------------------------------| 4x
D|---------------------------------------------------|
A|---------------------------------------------------|
D|-0h2-2-2-2-2-2-2-2-2-2-2-2-0h2-2-2-2-2-2-2-2-2-2-2-|

E|---------------------------------------------------|
B|---------------------------------------------------|
G|---------------------------------------------------|
D|---------------------------------------------------|
A|---------------------------------------------------|
D|-7-7-7-7-7-7-7-7-7-5-5-5-5-5-5-5-5-5-5-5-5-5-5-5---|

E|---------------------------------------------------|
B|---------------------------------------------------|
G|---------------------------------------------------|
D|---------------------------------------------------|
A|---------------------------------------------------|
D|-0-0-0-0-0-0-0-0-0-0-0-0-0-0-0-0-0-0-0-0-0-0-0-0-0-|

I gave you what you need!
E|---------------------------------------------------|---------|
B|---------------------------------------------------|         |
G|---------------------------------------------------|         |
D|---------------------------------------------------|         |
A|---------------------------------------------------|         |
D|------------------0h2-2-2-2-2-2-2-2-2-2-2-2--------|         |
                                                               | 4x
E|---------------------------------------------------|         |
B|---------------------------------------------------|         |
G|---------------------------------------------------|         |
D|---------------------------------------------------|         |
A|---------------------------------------------------|         |
D|-0h2-2-2-2-2-2-2-2-2-2-----------------------------|---------|

E|---------------------------------------------------|
B|---------------------------------------------------|
G|---------------------------------------------------|
D|---------------------------------------------------|
A|---------------------------------------------------|
D|-2/10-10-10-10-10-10-10-7-7-7-7-7-7-7-7-7-7-7-7----|

E|---------------------------------------------------|
B|---------------------------------------------------|
G|---------------------------------------------------|
D|---------------------------------------------------|
A|---------------------------------------------------|
D|-10-10-10-10-10-10-10-10-7-7-7-7-7-7-7-7-7-7-7-7---|

E|---------------------------------------------------|
B|---------------------------------------------------|
G|---------------------------------------------------|
D|------------------------------7-5-7-5-7---5-9---2--|
A|------------------------------7-5-7-5-7---5-9---2--|
D|-10-10-10-10-10-10-10-10-10-0-7-5-7-5-7---5-9---2--|

E|---------------------------------------------------|
B|---------------------------------------------------|
G|---------------------------------------------------|
D|-5-7-5-7---5-9---2-----5-7-5-7---5-10--------------|
A|-5-7-5-7---5-9---2-----5-7-5-7---5-10--------------|
D|-5-7-5-7---5-9---2-----5-7-5-7---5-10--------------|

E|---------------------------------------------------|
B|---------------------------------------------------|
G|---------------------------------------------------|
D|-5-7-5-7---5-9---2-----5-7-5-7---5-9---2-----------|
A|-5-7-5-7---5-9---2-----5-7-5-7---5-9---2-----------|
D|-5-7-5-7---5-9---2-----5-7-5-7---5-9---2-----------|

E|---------------------------------------------------|
B|---------------------------------------------------|
G|---------------------------------------------------|
D|-5-7-5-7---5-10---5-7-5-7---5-9/2-2----------------|
A|-5-7-5-7---5-10---5-7-5-7---5-9/2-2----------------|
D|-5-7-5-7---5-10---5-7-5-7---5-9/2-2----------------|
Tap to rate this tab
# A B C D E F G H I J K L M N O P Q R S T U V W X Y Z