Song name
# A B C D E F G H I J K L M N O P Q R S T U V W X Y Z

Three Days Grace - Take Me Under tab

Help us improve GuitareTab! Take a short survey!
Regular Tuning
Submitted by: Elliott Sutherland
Have any comments then e-mail me at canadian_guitarist_06@hotmail.com, im only 13 years 
and i learned how play when i was about 10. I learned this song all by myself in my room 
may 22 2006, and I hope it sounds good, if it isnt right but im really sure it sounds just like it so enjoy!

Three Days Grace - Take Me Under

|-------------------------------------------------------------------------|
|-------------------------------------------------------------------------|
|-------------------------------------------------------------------------|
|---0-----0----0----0-----0----0--------13-----------13-------------------| 4X
|------------------------------------------13----------13--------13-------|
|-3---3-5---5-6--6-8---10--13---11-11--------11-11-------11-11------------|

|----------------------------------------------------------------|
|-------1--0---------------------1--0----------------------------|
|-----2-------------4--2-------2--------------4--4--6-7----------|
|---2-------------5----------2--------------5--------------------| go back
|-0-------------5----------0--------------5----------------------| to first
|-------------3-------------------------3------------------------|
____________________________________________________________________________
( Chorus )                   Play Whole Chorus 2 times
|----------------------|-----------------------------------------------|
|------------------(2x)|-----------------------------------------------|
|---------10--9--------|-----------------------------------------------|
|-7---2---10--9---2----|-5-5-5-5--5-5-5-5--5-5---3-3-3-3--3-3-3-3--3-3-|
|-7---2---8---7---2----|-5-5-5-5--5-5-5-5--5-5---3-3-3-3--3-3-3-3--3-3-|
|-5---0-----------0----|-3-3-3-3--3-3-3-3--3-3---1-1-1-1--1-1-1-1--1-1-|
___________________________________________________________________________

|-----------------------------------------------------------------------|
|-----------------------------------------------------------------------|
|-----------------------------------------------------------------------|
|---0-----0----0----0-----0----0--------13-----------13-----------------| 4X
|------------------------------------------13----------13--------13-----|
|-3---3-5---5-6--6-8---10---13----11-11--------11-11-------11-11--------|

|----------------------------------------------------------------|
|-------1--0---------------------1--0----------------------------|
|-----2-------------4--2-------2--------------4--4--6-7----------|
|---2-------------5----------2--------------5--------------------|
|-0-------------5----------0--------------5----------------------|
|-------------3-------------------------3------------------------|

( Chorus )                   Play Whole Chorus 2 times
|----------------------|-----------------------------------------------|
|------------------(2x)|-----------------------------------------------|
|---------10--9--------|-----------------------------------------------|
|-7---2---10--9---2----|-5-5-5-5--5-5-5-5--5-5---3-3-3-3--3-3-3-3--3-3-|
|-7---2---8---7---2----|-5-5-5-5--5-5-5-5--5-5---3-3-3-3--3-3-3-3--3-3-|
|-5---0-----------0----|-3-3-3-3--3-3-3-3--3-3---1-1-1-1--1-1-1-1--1-1-|

|----------------------------------------------------------------------|
|----------------------------------------------------------------------|
|----------------------------------------------------------------------|
|---------------------------13-13-13-13--13-13-13-13--13-13------------| 4x
|---------------------------13-13-13-13--13-13-13-13--13-13------------|
|-333-555-666-888-1010--13--11-11-11-11--11-11-11-11--11-11------------|

|---------------------------------------------|
|-------1--0---------------------1--0---------|
|-----2-------------4--2-------2--------------|
|---2-------------5----------2----------------|
|-0-------------5----------0------------------|
|-------------3-------------------------------|

|-------------------------|
|-------------------------|
|-------------------------|
|-------------------------|
|-------------------------|
|-888-666-555--3333-3b----|

( Chorus )                   Play Whole Chorus 2 times
|----------------------|-----------------------------------------------|
|------------------(2x)|-----------------------------------------------|
|---------10--9--------|-----------------------------------------------|
|-7---2---10--9---2----|-5-5-5-5--5-5-5-5--5-5---3-3-3-3--3-3-3-3--3-3-|
|-7---2---8---7---2----|-5-5-5-5--5-5-5-5--5-5---3-3-3-3--3-3-3-3--3-3-|
|-5---0-----------0----|-3-3-3-3--3-3-3-3--3-3---1-1-1-1--1-1-1-1--1-1-|

|----------------------------------------------------------------------|
|----------------------------------------------------------------------|
|----------------------------------------------------------------------|
|---------------------------13-13-13-13--13-13-13-13--13-13------------| 4x
|---------------------------13-13-13-13--13-13-13-13--13-13------------|
|-333-555-666-888-1010--13--11-11-11-11--11-11-11-11--11-11------------|

|----------------------------------------------------------------|
|-------1--0---------------------1--0----------------------------|
|-----2-------------4--2-------2--------------4--4--6-7----------|
|---2-------------5----------2--------------5--------------------|
|-0-------------5----------0--------------5----------------------|
|-------------3-------------------------3------------------------|

***************************************************************************
Sounds 99% right for me but i know its wrong tabs.

b-bend

E|-----------------------------|
B|-----------------------------|
G|-----------------------------| those are the strings threw the whole song
D|-----------------------------| i just forgot to put them on every line.
A|-----------------------------|
E|-----------------------------|

****************************************************************************
Related for Take Me Under tab