Song name
# A B C D E F G H I J K L M N O P Q R S T U V W X Y Z

Three Days Grace - Let It Die tab

This is my first tab ever, but I know its right because this song in so damn easy to 
If you're not good at palm muting, we'll.... go find another 3dg song like Gone Forever, 
dont pm in that song. any here it is.

Intro (Only once)
E|------------------------------------------------|
B|------------------------------------------------|
G|------------------------------------------------|
D|-7-7--7-7--10-10--10-10---5-5--5-5---5-5--5-5---|
A|-5-5--5-5---7--7---7--7---3-3--3-3---3-3--3-3---|
D|-5-5--5-5---7--7---7--7---3-3--3-3---3-3--3-3---|

Verse (Note the extra 7s, 9s and 5s)x2                                                   
 some one else does
E|-----------------------------------------------------|------------------|
B|-----------------------------------5-----------5-----|------------------|
G|----------7------------9-----------------------------|-/9--7--5--/12--7-|
D|-7--7--7-----10-10-10-----5--5--5-----5--5--5--------|------------------|
A|-5--5--5------7--7--7-----3--3--3-----3--3--3--------|------------------|
D|-5--5--5------7--7--7-----3--3--3-----3--3--3--------|------------------|

Pre-chorus (Palm mute)
E|--------------------------------------|
B|--------------------------------------|
G|-5-5-5-5-5-5-5-5---5-5-5-5---5-5-5-5--|
D|-2-2-2-2-2-2-2-2---3-3-3-3---5-5-5-5--|
A|--------------------------------------|
D|--------------------------------------|

Chorus x2
E|-------------------------------------------------------------------------|
B|-------------------------------------------------------------------------|
G|-------------------------------------------------------------------------|
D|-7-7---10-10---0---3-3-3--10-10-10--5---7-7---10-10---0---3-3-3-3---5-5--|
A|-7-7---10-10---0---3-3-3--10-10-10--5---7-7---10-10---0---3-3-3-3---5-5--|
D|-7-7---10-10---0---3-3-3--10-10-10--5---7-7---10-10---0---3-3-3-3---5-5--|

Verse x2
E|-----------------------------------------------------|------------------|
B|-----------------------------------5-----------5-----|------------------|
G|----------7------------9-----------------------------|-/9--7--5--/12--7-|
D|-7--7--7-----10-10-10-----5--5--5-----5--5--5--------|------------------|
A|-5--5--5------7--7--7-----3--3--3-----3--3--3--------|------------------|
D|-5--5--5------7--7--7-----3--3--3-----3--3--3--------|------------------|

Chorus x2
E|-------------------------------------------------------------------------|
B|-------------------------------------------------------------------------|
G|-------------------------------------------------------------------------|
D|-7-7---10-10---0---3-3-3--10-10-10--5---7-7---10-10---0---3-3-3-3---5-5--|
A|-7-7---10-10---0---3-3-3--10-10-10--5---7-7---10-10---0---3-3-3-3---5-5--|
D|-7-7---10-10---0---3-3-3--10-10-10--5---7-7---10-10---0---3-3-3-3---5-5--|

Bridge x2
E|-------------------------------------|
B|-------------------------------------|
G|-------------------------------------|
D|-0-0-0-0--2-2-2-2--3-3-3-3--5-5-5-5--|
A|-0-0-0-0--2-2-2-2--3-3-3-3--5-5-5-5--|
D|-0-0-0-0--2-2-2-2--3-3-3-3--5-5-5-5--|

then,
E|-------------------------------------|
B|-------------------------------------|
G|-------------------------------------|
D|-7-7-7-7--0-0-0-0--3-3-3-3--5-5-5-5--|
A|-7-7-7-7--0-0-0-0--3-3-3-3--5-5-5-5--|
D|-7-7-7-7--0-0-0-0--3-3-3-3--5-5-5-5--|

Chorus x2
E|-------------------------------------------------------------------------|
B|-------------------------------------------------------------------------|
G|-------------------------------------------------------------------------|
D|-7-7---10-10---0---3-3-3--10-10-10--5---7-7---10-10---0---3-3-3-3---5-5--|
A|-7-7---10-10---0---3-3-3--10-10-10--5---7-7---10-10---0---3-3-3-3---5-5--|
D|-7-7---10-10---0---3-3-3--10-10-10--5---7-7---10-10---0---3-3-3-3---5-5--|

End,

G|-9--7--5--12--9---------------|

Rate, and remeber im a newb. If there are any corrections, let me know. I will have more 
for these bands soon : Three Days Grace, Trapt, Blindside, Slipknot (maybe), Disturbed, 
Spineshank, Green Day, Faktion and whoever else i come across.
Tap to rate this tab
 
# A B C D E F G H I J K L M N O P Q R S T U V W X Y Z