Guitaretab - guitar tabs
Song name
# A B C D E F G H I J K L M N O P Q R S T U V W X Y Z

Three Days Grace - Not Again tab

Poop on my face again please
Tuning: DADGBe
~~= Bend strings
\= Slide down
X= Palm mute

Here are the guitar tabs to our new demo "Not Again". They are 100 percent accurate.

e|-0-0-0-00000----0-0-0-00000----0-0-0-00000----|
B|-0-0-0-00000----0-0-0-00000----0-0-0-00000----|
G|-1-1-1-11111----0-0-0-00000----2-2-2-22222----|
D|-2-2-2-22222----2-2-2-22222----2-2-2-22222----|
A|-2-2-2-22222----2-2-2-22222----2-2-2-22222----|
D|----------------------------------------------|


|-0-0-0-00000----|
|-0-0-0-00000----|
|-0-0-0-00000----|
|-2-2-2-22222----|
|-2-2-2-22222----|
|----------------|x2




Chorus:


|----------------------------------------------|
|----------------------------------------------|
|----------------------------------------------|
|-2-2-222-4-4--xxxx5-xxxx3--2-2-222-4-4--xxxx5-|
|-2-2-222-4-4--xxxx5-xxxx3--2-2-222-4-4--xxxx5-|
|-2-2-222-4-4--xxxx5-xxxx3--2-2-222-4-4--xxxx5-|



|---------|
|---------|
|---------|
|-xxxx575-|
|-xxxx575-|
|-xxxx575-|x2



|-0-0-0-00000----0-0-0-00000----0-0-0-00000----|
|-0-0-0-00000----0-0-0-00000----0-0-0-00000----|
|-1-1-1-11111----0-0-0-00000----2-2-2-22222----|
|-2-2-2-22222----2-2-2-22222----2-2-2-22222----|
|-2-2-2-22222----2-2-2-22222----2-2-2-22222----|
|----------------------------------------------|


|-0-0-0-00000----|
|-0-0-0-00000----|
|-0-0-0-00000----|
|-2-2-2-22222----|
|-2-2-2-22222----|
|----------------|x2



Chorus:
[ Tab from: http://www.guitaretab.com/t/three-days-grace/98464.html ]
|----------------------------------------------|
|----------------------------------------------|
|----------------------------------------------|
|-2-2-222-4-4--xxxx5-xxxx3--2-2-222-4-4--xxxx5-|
|-2-2-222-4-4--xxxx5-xxxx3--2-2-222-4-4--xxxx5-|
|-2-2-222-4-4--xxxx5-xxxx3--2-2-222-4-4--xxxx5-|


|-xxxx575-|
|-xxxx575-|
|-xxxx575-|
|---------|
|---------|
|---------|x2




|----------------------------------|
|----------------------------------|
|----------------------------------|
|-0xxx0xxx0xxx0xxx0xxx0xxx0xxx0xxx-|
|-0xxx0xxx0xxx0xxx0xxx0xxx0xxx0xxx-|
|-0xxx0xxx0xxx0xxx0xxx0xxx0xxx0xxx-|


Solo #1:

|----------------------------------------------------------------------|
|-0-2-3--2-3-5-3-5-7-5-7-9-7-9-11--9-11--12-13-12-13-------------------|
|----------------------------------------------------12~~--------------|
|----------------------------------------------------------------------|
|----------------------------------------------------------------------|
|----------------------------------------------------------------------|


Solo #2:

|-------------------------------9---9-9-9--7----------------------|
|-17~~~~~~~~~~~~~~~~-7---7-----9-9-7~~~~~~~~----------------------|
|-----------------------------------------------------------------|
|-----------------------------------------------------------------|
|-----------------------------------------------------------------|
|-----------------------------------------------------------------|



|-------------------------------------------------------|
|-------------------------------------------------------|
|-------------------------------------------------------|
|-0xxx0xxx0xxx0xxx0xxx0xxx0xxx0----0xxx0xxx0xxx0xxx0xxx-|
|-0xxx0xxx0xxx0xxx0xxx0xxx0xxx0----0xxx0xxx0xxx0xxx0xxx-|
|-0xxx0xxx0xxx0xxx0xxx0xxx0xxx0----0xxx0xxx0xxx0xxx0xxx-|



|---------------------|
|---------------------|
|---------------------|
|-0xxx0xxx-12\0-------|
|-0xxx0xxx-12\0-------|
|-0xxx0xxx-12\0-------|

 2005 - 2006 Tesida
Related for Not Again tab