Song name
# A B C D E F G H I J K L M N O P Q R S T U V W X Y Z

Three Percent Hero - Something You Should Know tab

Standard Tuning

Intro

E|-------0---------|--------0----------|-------0---------|-------0-----0----|
B|-----------0-----|------------0------|-----------5-----|-----------0------|
G|-----9-------9---|-----11-------11---|-----6-------6---|-----6-------6----|
D|---9-----------9-|---9-------------9-|---6-----------6-|---7-----------xx-|
A|-7---------------|-6-----------------|-4---------------|---------------xx-|
E|-----------------|-------------------|-----------------|-5-------------xx-|


E|-0-0-0000-00-0000-|-0-0-0000-00-0000-|-0-0-0000-00-0000-|-0-0-0000-00-0000-|
B|-0-0-0000-00-0000-|-0-0-0000-00-0000-|-0-0-0000-00-0000-|-0-0-0000-00-0000-|
G|-6-6-6666-66-6666-|-2-2-2222-22-2222-|-x-x-xxxx-xx-xxxx-|-4-4-4444-44-4444-|
D|-6-6-6666-66-6666-|-2-2-2222-22-2222-|-2-2-2222-22-2222-|-4-4-4444-44-4444-|
A|-4-4-4444-44-4444-|-0-0-0000-00-0000-|-2-2-2222-22-2222-|-2-2-2222-22-2222-|
E|------------------|------------------|-0-0-0000-00-0000-|------------------|


Verse

E|-0-0-0000-00-0000-|-0-0-0000-00-0000-|-0-0-0000-00-0000-|-0-0-0000-00-0000-|
B|-0-0-0000-00-0000-|-0-0-0000-00-0000-|-0-0-0000-00-0000-|-0-0-0000-00-0000-|
G|-6-6-6666-66-6666-|-2-2-2222-22-2222-|-x-x-xxxx-xx-xxxx-|-4-4-4444-44-4444-| x3
D|-6-6-6666-66-6666-|-2-2-2222-22-2222-|-2-2-2222-22-2222-|-4-4-4444-44-4444-|
A|-4-4-4444-44-4444-|-0-0-0000-00-0000-|-2-2-2222-22-2222-|-2-2-2222-22-2222-|
E|------------------|------------------|-0-0-0000-00-0000-|------------------|


E|-0-0-0000-00-0000-|-0-0-0000-00-0000-|-0-0-0000-00-0000-|-0-----0-----0---|-0-----0-----0-00-|
B|-0-0-0000-00-0000-|-0-0-0000-00-0000-|-0-0-0000-00-0000-|-0-----0-----0---|-0-----0-----0-00-|
G|-6-6-6666-66-6666-|-2-2-2222-22-2222-|-x-x-xxxx-xx-xxxx-|-4-4-4-4-4-4-4-4-|-4-4-4-4-4-4-4-44-|
D|-6-6-6666-66-6666-|-2-2-2222-22-2222-|-2-2-2222-22-2222-|-4-4-4-4-4-4-4-4-|-4-4-4-4-4-4-4-44-|
A|-4-4-4444-44-4444-|-0-0-0000-00-0000-|-2-2-2222-22-2222-|-2-2-2-2-2-2-2-2-|-2-2-2-2-2-2-2-22-|
E|------------------|------------------|-0-0-0000-00-0000-|-----------------|------------------|


Chorus

E|-0-00000-00000-00-|-0--0-0-0-0-0--0-0-0-0-0--0-0--|-0-00000-00000-00-|-0-00000-00000-00-|
B|-0-00000-00000-00-|-0--0-0-0-0-0--0-0-0-0-0--0-0--|-0-00000-00000-00-|-0-00000-00000-00-|
G|-9-99999-99999-99-|-11-1111111111-1111111111-1111-|-6-66666-66666-66-|-2-22222-22222-22-| x2
D|-9-99999-99999-99-|-9--9-9-9-9-9--9-9-9-9-9--9-9--|-6-66666-66666-66-|-2-22222-22222-22-|
A|-7-77777-77777-77-|-6--6-6-6-6-6--6-6-6-6-6--6-6--|-4-44444-44444-44-|-0-00000-00000-00-|
E|-0-00000-00000-00-|-------------------------------|------------------|------------------|


Post Chorus

E|-------0---------|-------0---------|
B|---9-------9---9-|---7-------7-----|
G|-9---9-------9---|-8---8-------8---|
D|-----------------|---------------9-|
A|-----------------|-----------------|
E|-----------------|-----------------|


Verse

E|-0-0-0000-00-0000-|-0-0-0000-00-0000-|-0-0-0000-00-0000-|-0-0-0000-00-0000-|
B|-0-0-0000-00-0000-|-0-0-0000-00-0000-|-0-0-0000-00-0000-|-0-0-0000-00-0000-|
G|-6-6-6666-66-6666-|-2-2-2222-22-2222-|-x-x-xxxx-xx-xxxx-|-4-4-4444-44-4444-| x3
D|-6-6-6666-66-6666-|-2-2-2222-22-2222-|-2-2-2222-22-2222-|-4-4-4444-44-4444-|
A|-4-4-4444-44-4444-|-0-0-0000-00-0000-|-2-2-2222-22-2222-|-2-2-2222-22-2222-|
E|------------------|------------------|-0-0-0000-00-0000-|------------------|


E|-0-0-0000-00-0000-|-0-0-0000-00-0000-|-0-0-0000-00-0000-|-0-----0-----0---|-0-----0-----0-00-|
B|-0-0-0000-00-0000-|-0-0-0000-00-0000-|-0-0-0000-00-0000-|-0-----0-----0---|-0-----0-----0-00-|
G|-6-6-6666-66-6666-|-2-2-2222-22-2222-|-x-x-xxxx-xx-xxxx-|-4-4-4-4-4-4-4-4-|-4-4-4-4-4-4-4-44-|
D|-6-6-6666-66-6666-|-2-2-2222-22-2222-|-2-2-2222-22-2222-|-4-4-4-4-4-4-4-4-|-4-4-4-4-4-4-4-44-|
A|-4-4-4444-44-4444-|-0-0-0000-00-0000-|-2-2-2222-22-2222-|-2-2-2-2-2-2-2-2-|-2-2-2-2-2-2-2-22-|
E|------------------|------------------|-0-0-0000-00-0000-|-----------------|------------------|


Chorus

E|-0-00000-00000-00-|-0--0-0-0-0-0--0-0-0-0-0--0-0--|-0-00000-00000-00-|-0-00000-00000-00-|
B|-0-00000-00000-00-|-0--0-0-0-0-0--0-0-0-0-0--0-0--|-0-00000-00000-00-|-0-00000-00000-00-|
G|-9-99999-99999-99-|-11-1111111111-1111111111-1111-|-6-66666-66666-66-|-2-22222-22222-22-| x2
D|-9-99999-99999-99-|-9--9-9-9-9-9--9-9-9-9-9--9-9--|-6-66666-66666-66-|-2-22222-22222-22-|
A|-7-77777-77777-77-|-6--6-6-6-6-6--6-6-6-6-6--6-6--|-4-44444-44444-44-|-0-00000-00000-00-|
E|-0-00000-00000-00-|-------------------------------|------------------|------------------|


Bridge

E|------------------|------------------|------------------|------------------|
B|------------------|------------------|------------------|------------------|
G|------------------|------------------|------------------|------------------| x2
D|-2-2-2222-22-2222-|-4-4-4444-44-4444-|-6-6-6666-66-6666-|-7-7-7777-77-7777-|
A|-4-4-4444-44-4444-|-2-2-2222-22-2222-|-7-7-7777-77-7777-|-7-7-7777-77-7777-|
E|------------------|------------------|-4-4-4444-44-4444-|-5-5-5555-55-5555-|


Verse

E|-0-0-0000-00-0000-|-0-0-0000-00-0000-|-0-0-0000-00-0000-|-0-0-0000-00-0000-|
B|-0-0-0000-00-0000-|-0-0-0000-00-0000-|-0-0-0000-00-0000-|-0-0-0000-00-0000-|
G|-6-6-6666-66-6666-|-2-2-2222-22-2222-|-x-x-xxxx-xx-xxxx-|-4-4-4444-44-4444-| x3
D|-6-6-6666-66-6666-|-2-2-2222-22-2222-|-2-2-2222-22-2222-|-4-4-4444-44-4444-|
A|-4-4-4444-44-4444-|-0-0-0000-00-0000-|-2-2-2222-22-2222-|-2-2-2222-22-2222-|
E|------------------|------------------|-0-0-0000-00-0000-|------------------|


E|-0-0-0000-00-0000-|-0-0-0000-00-0000-|-0-0-0000-00-0000-|-0-----0-----0---|-0-----0-----0-00-|
B|-0-0-0000-00-0000-|-0-0-0000-00-0000-|-0-0-0000-00-0000-|-0-----0-----0---|-0-----0-----0-00-|
G|-6-6-6666-66-6666-|-2-2-2222-22-2222-|-x-x-xxxx-xx-xxxx-|-4-4-4-4-4-4-4-4-|-4-4-4-4-4-4-4-44-|
D|-6-6-6666-66-6666-|-2-2-2222-22-2222-|-2-2-2222-22-2222-|-4-4-4-4-4-4-4-4-|-4-4-4-4-4-4-4-44-|
A|-4-4-4444-44-4444-|-0-0-0000-00-0000-|-2-2-2222-22-2222-|-2-2-2-2-2-2-2-2-|-2-2-2-2-2-2-2-22-|
E|------------------|------------------|-0-0-0000-00-0000-|-----------------|------------------|


Chorus

E|-0-00000-00000-00-|-0--0-0-0-0-0--0-0-0-0-0--0-0--|-0-00000-00000-00-|-0-00000-00000-00-|
B|-0-00000-00000-00-|-0--0-0-0-0-0--0-0-0-0-0--0-0--|-0-00000-00000-00-|-0-00000-00000-00-|
G|-9-99999-99999-99-|-11-1111111111-1111111111-1111-|-6-66666-66666-66-|-2-22222-22222-22-| x2
D|-9-99999-99999-99-|-9--9-9-9-9-9--9-9-9-9-9--9-9--|-6-66666-66666-66-|-2-22222-22222-22-|
A|-7-77777-77777-77-|-6--6-6-6-6-6--6-6-6-6-6--6-6--|-4-44444-44444-44-|-0-00000-00000-00-|
E|-0-00000-00000-00-|-------------------------------|------------------|------------------|


Chorus 2

E|-------0---------|--------0----------|-------0---------|-------0-----0----|
B|-----------0-----|------------0------|-----------5-----|-----------0------|
G|-----9-------9---|-----11-------11---|-----6-------6---|-----6-------6----|
D|---9-----------9-|---9-------------9-|---6-----------6-|---7-----------xx-|
A|-7---------------|-6-----------------|-4---------------|---------------xx-|
E|-----------------|-------------------|-----------------|-5-------------xx-|


E|-0-0-0000-00-0000-|-0--0--0-0-0-0--0-0--0-0-0-0--|-0-0-0000-00-0000-|---------0-0-0-00-|
B|-0-0-0000-00-0000-|-0--0--0-0-0-0--0-0--0-0-0-0--|-0-0-0000-00-0000-|---------0-0-0-00-|
G|-9-9-9999-99-9999-|-11-11-11111111-1111-11111111-|-6-6-6666-66-6666-|-2-2-2-2-2-2-2-22-|
D|-9-9-9999-99-9999-|-9--9--9-9-9-9--9-9--9-9-9-9--|-6-6-6666-66-6666-|-2-2-2-2-2-2-2-22-|
A|-7-7-7777-77-7777-|-6--6--6-6-6-6--6-6--6-6-6-6--|-4-4-4444-44-4444-|-0-0-0-0-0-0-0-00-|
E|------------------|------------------------------|------------------|------------------|


Chorus 3

E|-0-0-0000-00-0000-|-0--0--0-0-0-0--0-0--0-0-0-0--|-0-0-0000-00-0000-|-0-0-0000-00-0000-|
B|-0-0-0000-00-0000-|-0--0--0-0-0-0--0-0--0-0-0-0--|-0-0-0000-00-0000-|-0-0-0000-00-0000-|
G|-9-9-9999-99-9999-|-11-11-11111111-1111-11111111-|-6-6-6666-66-6666-|-2-2-2222-22-2222-|
D|-9-9-9999-99-9999-|-9--9--9-9-9-9--9-9--9-9-9-9--|-6-6-6666-66-6666-|-2-2-2222-22-2222-|
A|-7-7-7777-77-7777-|-6--6--6-6-6-6--6-6--6-6-6-6--|-4-4-4444-44-4444-|-0-0-0000-00-0000-|
E|-0-0-0000-00-0000-|------------------------------|------------------|------------------|



E|-0-0-0000-00-0000-|-0--0--0-0-0-0--0-0--0-0-0-0--|-0-0-0000-00-0000-|-0-0-0000-00-0--0-|-x--0--||
B|-0-0-0000-00-0000-|-0--0--0-0-0-0--0-0--0-0-0-0--|-0-0-0000-00-0000-|-0-0-0000-00-0--0-|-x--0--||
G|-9-9-9999-99-9999-|-11-11-11111111-1111-11111111-|-6-6-6666-66-6666-|-2-2-2222-22-2--2-|-x--1--||
D|-9-9-9999-99-9999-|-9--9--9-9-9-9--9-9--9-9-9-9--|-6-6-6666-66-6666-|-2-2-2222-22-2--2-|-x--2--||
A|-7-7-7777-77-7777-|-6--6--6-6-6-6--6-6--6-6-6-6--|-4-4-4444-44-4444-|-0-0-0000-00-0--0-|-x--2--||
E|-0-0-0000-00-0000-|------------------------------|------------------|------------------|-x--0--||
Tap to rate this tab
# A B C D E F G H I J K L M N O P Q R S T U V W X Y Z