Song name
# A B C D E F G H I J K L M N O P Q R S T U V W X Y Z

Three Plus - Honey Baby tab

Well umm hey guys hows it goin names Nga and im hopin you guys like my first
tab. Its Honey Baby by Three Plus and ive learnt both this and the other
 version tabbed on a lower pitch whereas this one is on a higher pitch. I
had alot of fun learning this song and it was relatively easy so i hope you
guys reading it will have as much fun as i did.
So enjoy guys,Ciao!

e:------9--10--9--12--12--12--12--10p9--9--9h10p9--12--12--12--12--12--9--5--|
B:------9--------------------------------------------------------------------|
G:------8--------------------------------------------------------------------|
D:---------------------------------------------------------------------------|
A:---------------------------------------------------------------------------|
E:---------------------------------------------------------------------------|

e:--0---5--0---5--0---5--0---5--0h2--0--0h2--2--4--4h5--0h2--2--4--4h5--7h9--|
B:----7------7------7------7-------------------------------------------------|
G:---------------------------------------------------------------------------|
D:---------------------------------------------------------------------------|
A:---------------------------------------------------------------------------|
E:---------------------------------------------------------------------------|

e:12--9--7--9--9h10--9--5|
B:-----------------------|
G:-----------------------|
D:-----------------------|
A:-----------------------|
E:-----------------------|
Tap to rate this tab
 
# A B C D E F G H I J K L M N O P Q R S T U V W X Y Z