Guitaretab - guitar tabs
Song name
# A B C D E F G H I J K L M N O P Q R S T U V W X Y Z

Three Pronged Baldric - Three Pronged Christmas Time tab

This is my first tab, so don't expect much. I've done the song and the soloish thing at
the end. You probably don't know the song because the band aren't well known. They only
have a Bass, Guitar and Piano. this is a great song, though.

 --|-- = this is a slight pause in the song that is very important for it to sound good.
It should last for half a beatand the previous note should still be playing.     


e|-----------------|-----------------|
b|-1-1-1-1-3-1-3-1-|-1-1-1-0---------|
g|-----------------|----------2-0----|   Repeat
D|-----------------|--------------3-1|     X1
A|-----------------|-----------------|
E|-----------------|-----------------|

  Song slows down

e|----------|----------|-1-0------|0-----|
b|-1-3-1-0--|-1-3-1-0--|-----3-1-3|-3-1-0|
g|---------2|---------2|----------|------|  Repeat
D|----------|----------|----------|------|   X1
A|----------|----------|----------|------|
E|----------|----------|----------|------|

e|--0-0-0-0---|-----0-1-3-1-0--|
b|-3-------3-3|-3-3-----------3|
g|------------|----------------|   Repeat
D|------------|----------------|     X1
A|------------|----------------|
E|------------|----------------|

PAUSE

PART 2
[ Tab from: http://www.guitaretab.com/t/three-pronged-baldric/54722.html ]
e|-----------------|-----------------|
b|-1-1-1-1-3-1-3-1-|-1-1-1-0---------|
g|-----------------|----------2-0----|   Repeat
D|-----------------|--------------3-1|     X1
A|-----------------|-----------------|
E|-----------------|-----------------|

Song speeds up

e|--0--1----0-0-0-0-0-0-1---0------
b|-3--3--3-3-3-3-3-----3-3-3-3-1-0-
g|--------------------------------2   Repeat
D|---------------------------------     X1
A|---------------------------------
E|---------------------------------

e|--0-0-0-0---|-----0-1-3-1-0--|
b|-3-------3-3|-3-3-----------3|
g|------------|----------------|   Repeat
D|------------|----------------|     X1
A|------------|----------------|
E|------------|----------------|

PAUSE AND THEN PLAY PART 2 ANOTHER TIME. DON'T KNOW THE BRIDGE YET BUT THE SOLO IS
SIMPLE AND SOUNDS A BIT LIKE A SCALE (BUT IT ISN'T)

e|--|---|--0|1-0|--1|-0-|------|
b|--|0-1|-3-|---|-3-|--3|-1-0--|
g|-2|---|---|---|---|---|----22| Repeat
D|--|---|---|---|---|---|------|   X1 
A|--|---|---|---|---|---|------|
E|--|---|---|---|---|---|------|
 After this, you can fill in with a few notes on the 2nd,3rd and 4th strings and repeat
until the end of the song when you finish with:

e|-|
b|2|
g|2|
D|2|
A|-|
E|-|

this song is meant to be played with the piano and Bass and may not sound brilliant on
guitar. it is very simple to play and requires no hammer Ons/Offs. Put together with the
proper Lyrics, this sounds brilliant.

See the band on www.freewebs.com/thebaldric