Song name
# A B C D E F G H I J K L M N O P Q R S T U V W X Y Z

Three Six Mafia - Late Nite Tip tab

-------------------------------------------------------------------------------
			     Late Nite Tip - Three Six Mafia
-------------------------------------------------------------------------------
Tabbed by: Nick Yates
Email: yates119@yahoo.com

Tuning: Standard (EADGBe)

Ok so this is hip hop song and this first part is the piano part that plays all 
the song arranged for guitar.

e|--------------------------------------------------------------------------|
B|------------------------------8--7--5-----3-----0-------------------------|
G|------0--5--2--4--0--------------------5-----2----------------------------|
D|---------------------4--0-------------------------------------------------|
A|---------------------------3----------------------------------------------|
E|---0----------------------------------------------------------------------|
That's it! Just repeat, repeat, and repeat throughout the song.

Part 2 (Rock Version)
 - Ok now this part is the same only i've added a little spice to it to give it a rock 
because we all love mash-ups right?...riiight! ENJOY!
e|-----------------------------3--------------------------------------------|
B|-----------------------------3--5/8--7b8--5-----3\----0-------------------|
G|------0--5--2--4--0----------5---------------5-----2----------------------|
D|---2-----------------4b5--0--5--------------------------------------------|
A|---2-------------------------3--------------------------------------------|
E|---0-------------------------3--------------------------------------------|


-Nick Yates
Tap to rate this tab
 
# A B C D E F G H I J K L M N O P Q R S T U V W X Y Z