Song name
# A B C D E F G H I J K L M N O P Q R S T U V W X Y Z

Threshold - Pilot In The Sky Of Dreams tab

-------------------------------------------------------------------------------
			  Pilot in the sky of dreams - Threshold
-------------------------------------------------------------------------------
Tabbed by: RWR
Email:

Tuning:Eb

Listen for timing/structure. It's my first ever attempt at a tab and it shows. It should 
you the general idea I hope. There's a few bits I still need to tab.

Intro solo
e|-----------------------------------------12--12-14-14b15--------|
B|-----------------------13-12-13-15-13-15------------------------|
G|-8----8-9--12b13-12---------------------------------------------|
D|---11-----------------------------------------------------------|
A|----------------------------------------------------------------|
E|----------------------------------------------------------------|

e|-14b15r12----12-14--12-14-14b15r=12----12----12-----------------|
B|----------15------------------------------15----13-15-12-13-----|
G|----------------------------------------------------------------|
D|----------------------------------------------------------------|
A|----------------------------------------------------------------|
E|----------------------------------------------------------------|

e|----------------------------------------------------------------|
B|----12---------13----12-----------------------------12-13-15----|
G|-14----12--/14----14-----------------------11-12-14-------------|
D|----------------------------------10-12-14----------------------|
A|-------------------------10-12-14-------------------------------|
E|----------------------------------------------------------------|

e|----------------------------12-14-15-12~~-----------------------|
B|-------------------12-13-15-------------------------------------|
G|----------11-12-14----------------------------------------------|
D|-10-12-14-------------------------------------------------------|
A|----------------------------------------------------------------|
E|----------------------------------------------------------------|

Main riff
e|----------------------------------------------------------------|
B|----------------------------------------------------------------|
G|----------------------------------------------------------------|
D|----------------------------------------------------------------|
A|-----6-7-----------4-7---------------6-7-----------4-7----------|
E|-4-0-----0-4-0-6-0-----0-6-0-2-0-7-0-----0-7-0-6-0-----0-6-0-2-0|

Before verse
e|-----------------------------------------------------------------|
B|-----------------------------------------------------------------|
G|-----------------------------------------------------------------|
D|-----------------------------------------------------------------|
A|4----4-4----4-4-4-4---4-4---4-4-4-4---4-4---4-4-4-4---4-4---4-4-4|
E|2----2-2----2-2-2-2---2-2---0-2-0-2---2-2---2-2-2-2---2-2---2-2-2|

 Verse
e|-----------------------------------------------------------------|
B|-----------------------------------------------------------------|
G|-----------------------------------------------------------------|
D|---------------------------twice-------------------------twice---|
A|-2-----2--2----------------------6-----6--6----------------------|
E|-0-----0--0--0-2-0-4-0-2-0-------4-----4--4-4-6-4-7-4-6-4--------|

  Pre-chorus
e|---------------------------------------------------------------------|
B|---------------------------------------------------------------------|
G|---------------------------------------------------------------------|
D|-6-6-6-6---------------------------------6-6-6-6--4-4-4-4------------|
A|-4-4-4-4--6-6-6-6--2---------------------4-4-4-4--2-2-2-2----7------7|
E|----------4-4-4-4--0-----0-2-0-4-0-2-0-----------------------5------5|

  Chorus
e|---------------------------------------------------------------------|
B|---------------------------------------------------------------------|
G|---------------------------------------------------------------------|
D|---------------------------------------------------------------------|
A|---------------------9---9---------------------------------6----4----|
E|-4------4-/6------6-/7---7--/9----9-11-12--9--7-6---4-3--------------|

Solo Rhythm
    PM----------------------|  PM------------------------------------|
e|-------------------------------------------------------------------|
B|-------------------------------------------------------------------|
G|-------------------------------------------------------------------|
D|-7--------------------------7--------------------------------------|
A|-5--------------------------5--------------------------------------|
E|---0-0-0--0-0-0---0-2-0-3-0---0-0-0---0-0-0--0-2-0-3-0-5-7-0-------|

    PM---------------------|  PM-------------------------------------|
e|-------------------------------------------------------------------|
B|-------------------------------------------------------------------|
G|-------------------------------------------------------------------|
D|-7-------------------------7---------------------------------------|
A|-5-------------------------5--------------------7-5----------------|
E|---0-0-0--0-0-0--0-2-0-3-0---0-0-0---0-0-0--0-0-----0-5-7-0-7-8-0--|

e|-----------------------------------------------------------------|
B|-----------------------------------------------------------------|
G|-----------------------------------------------------------------|
D|-7--------------------------7------------------------------------|
A|-5-2-2-2--2-2-2-------------5-2-2-2---2-2-2----------------------|
E|---0-0-0--0-0-0---0-2-0-3-0---0-0-0---0-0-0--0-2-0-3-0-5-7-0-----|

e|-----------------------------------------------------------------|
B|-----------------------------------------------------------------|
G|-----------------------------------------------------------------|
D|-7---------------------------------------------------------------|
A|-5-2-2-2-2-2-2---------------------------------------------------|
E|---0-0-0-0-0-0-0-2-0-3-0-4--/5---/7--/9--/11--/12----------------|

e|-----------------------------------------------------------------|
B|-----------------------------------------------------------------|
G|-----------------------------------------------------------------|
D|-----------------------------------------------------------------|
A|-----5-7-----------5-7---------------5-7-----------5-7-----------|
E|-5-0-----0-5-0-3-0-----0-3-0-2-0-3-0-----0-3-0-2-0-----0-2-0-3-0-|


  PM----------|                  PM----------------------------------|
e|-------------------------------------------------------------------|
B|-------------------------------------------------------------------|
G|---------------------------------------------------------9---------|
D|------------------8-8/9-9\8-8------------------8-8/9-9\8-----------|
A|-2-2-2-2-2--2-4----------------2-2-2-2-2--2-4------------7---------|
E|-0-0-0-0-0--0-2---6-6/7-7\6-6--0-0-0-0-0--0-2--6-6/7-7\6-----------|

That's all for now.

| /  slide up
| \  slide down
| h  hammer-on
| p  pull-off
| ~  vibrato
| +  harmonic
| x  Mute note
===============================================================================
Tap to rate this tab
# A B C D E F G H I J K L M N O P Q R S T U V W X Y Z