Song name
# A B C D E F G H I J K L M N O P Q R S T U V W X Y Z

Threshold - Mission Profile tab

Help us improve GuitareTab! Take a short survey!
Threshold
2004-Subsurface
Mission Profile
Transcribed by Daniel Ocon / Jason Fuzz
please mail mistakes to jason_fuzz@hotmail.com

Guitar Tuned E

Rhy. 1

E-------------------------------------------------------------------------|
B-------------------------------------------------------------------------|
G-------------------------------------------------------------------------|
D---8-----------8-----------8--------9------------9------------9----------|
A---6--6-6-6-6--6--6-6-6-6--6--6-6---6--6-6-6-6---6--6-6-6-6---6--6-6-----|
E-------------------------------------------------------------------------|


E-------------------------------------------------------------------------|
B-----------------------------------------------8-------------------------|
G-----------------------------------------------7-------------------------|
D---8-----------8-----------8--------------7----5----8--------------------|
A---6-----------6-----------6---------5----5---------6--------------------|
E-------------------------------------3-----------------------------------|


E-------------------------------------------------------------------------|
B-------------------------------------------------------------------------|
G-------------------------------------------------------------------------|
D---8-----------8-----------8--------9------------9------------9----------|
A---6--6-6-6-6--6--6-6-6-6--6--6-6---6--6-6-6-6---6--6-6-6-6---6--6-6-----|
E-------------------------------------------------------------------------|


E-------------------------------------------------------------------------|
B-------------------------------------------------------------------------|
G-------------------------------------------------------------------------|
D---8-----------8---------3----5------------------------------------------|
A---6-----------6---------1----3----5-------------------------------------|
E-----------------------------------3-------------------------------------|

Play Rhy. 1 two times

Rhy. 2

E-------------------------------------------------------------------------|
B-------------------------------------------------------------------------|
G-----------4--------------------5----2------------4----------------------|
D---2-------4-------4-------4----5----2----2-------4-------4-------4------|
A---2-------2-------5-------5----3----0----2-------2-------5-------5------|
E---0--0-0--0--0-0-----0-0-----------------0--0-0--0--0-0-----0-0---------|


E-------------------------------------------------------------------------|
B-------------------------------------------------------------------------|
G---2----5----5-----------------------------------------------------------|
D---2----5----5-----------------------------------------------------------|
A---0----3----3-----------------------------------------------------------|
E-------------------------------------------------------------------------|

Play Rhy. 2 two times
Play Rhy. 1 two times
Play Rhy. 2 two times

Rhy. 3

E-------------------------------------------------------------------------|
B-------------------------------------------------------------------------|
G----sl-------------------------------------------------------------------|
D---9--2---2--2--2--2---2--2--2--2----------------------------------------|
A---9--2---2--2--2--2---2--2--2--2----------------------------------------|
E---7--0---0--0--0--0---0--0--0--0----------------------------------------|

Rhy. 4

E-------------------------------------------------------------------------|
B-------------------------------------------------------------------------|
G-------------sl-------------------sl----------------sl-------------------|
D---8--------7--8--------9--------9--8-----8--------8--7--8---------------|
A---6--6--6--5--6--6--6--7--7--7--7--6--6--6--6--6--6--5--6---------------|
E-------------------------------------------------------------------------|


E-------------------------------------------------------------------------|
B-------------------------------------------------------------------------|
G---9--9--9-9--8sl8-------------sl-----------------sl-------------sl------|
D----------------------8-------7--8-------9-------9--8-------8---7--8-----|
A---7--7--7-7--6--6----6--6-6--5--6--6 6--7--7-7--7--6--6--6-6---5--6-----|
E-------------------------------------------------------------------------|


Rhy. 5

E-------------------------------------------------------------------------|
B-------------------------------------------------------------------------|
G-------------------------------------------------------------------------|
D-------------------------------------------------------------------------|
A-------------------------------------------------------------------------|
E---0-0-3-5-7-5-3--2-3-5-3-2----------------------------------------------|


Play Rhy. 4 one time

Rhy. 6

E-------------------------------------------------------------------------|
B-------------------------------------------------------------------------|
G-------------------------------------------------------------------------|
D--------2----------------------------------------------------------------|
A--------2----------------------------------------------------------------|
E---0-0--0----------------------------------------------------------------|

Play Rhy. 4 one time
Play Rhy. 5 one time
Play Rhy. 4 one time
Play Rhy. 5 one time
Related for Mission Profile tab