Song name
# A B C D E F G H I J K L M N O P Q R S T U V W X Y Z

Thrice - Daedalus tab

Just a couple of quick notes:

1) I know it's messy - sorry about that.
2) Tuning is standard.
3) Guitar 1 (probably Teppei) is panned left.
4) Guitar 2 (probably Dustin) is panned right.
5) Shortcuts were taken; rhythms obviously aren't shown.
6) Some of the positions may not be exact, but you can play around with that.


 -----
|INTRO| (00:00 - 00:46) & (01:56 - 02:15)
 -----
(The chords above each bit are the progression that the bass plays over the whole thing.)


GUITAR 1
 Am  (x2)                  Dm  (x4)           F G  (x4)
|--7\--------------------||----------0------||--8-7-5------|
|------5--8-----8p5------||-----8------8----||--------8-5--|
|------5--5--/5-5---7-5--||--/9----9-----9--||-------------|
|------------------------||-----------------||-------------|
|------------------------||-----------------||-------------|
|------------------------||-----------------||-------------|


GUITAR 2
 Am
|--------0--------------0-------------0-------------1p0---0--|
|----------1----------------------------1-------1-------3----|
|------2-----2-----2------2---2-----2-----2---2---2----------|
|----2-----------2---2------2-----2--------------------------|
|--0-----------0----------------0-----------0----------------|
|------------------------------------------------------------|
 Dm
|--------1-----------1-----------1---------0-1-0--|
|------1---1-------1---1-------1---1--------------|
|----2-------2---2-------2---2-------2---2--------|
|--3-----------3-----------3-----------3----------|
|-------------------------------------------------|
|-------------------------------------------------|
 F G
|---------------------------------------------------|
|--------0-----------0-----------0-----------0------|
|--5---5---5---5---5---5---5---5---5---5---5---5----|
|----3-------3---3-------3---5-------5---5-------5--|
|---------------------------------------------------|
|---------------------------------------------------|


Play all of that twice, then (00:41):

GUITAR 1
|--------0-------0-------0--0--|
|------0-------0-------0----0--|
|----6-------6-------6------6--|
|--7-------7-------7--------7--|
|------------------------------|
|------------------------------|


GUITAR 2
|------------------------------------------|
|---------------------------------------0--|
|------6-7-6-------6-7-6-------6-7-6----6--|
|----7-------7---7-------7---7-------7--7--|
|--0-----------0-----------0------------0--|
|------------------------------------------|



 --------------
|VERSE (Part 1)| (00:47 - 01:11) & (02:16 - 02:39)
 --------------

BOTH GUITARS
(The second time, Guitar 1 throws the slide in.)
|--5--0--8--7--|--5--0--8--8/10-7--|
|--5--0--6--6--|--5--0--6--6----6--|
|--2--2--7--7--|--2--2--7-------7--|
|--------------|-------------------|
|--------------|-------------------|
|--------------|-------------------|



 --------------
|VERSE (Part 2)| (01:12 - 01:36)
 --------------

GUITAR 1
(The bit in brackets is played longer, but I decided to save room.)
|--7\---------------7\---------------------------------------------------------|
|--5\--5--8----8p5--5\--5--8----8p5------------------------------------13-12\--|
|------5--5--5----------5--5--5----------10----10----10-[---10----10]--10------|
|------------------------------------/14----14----14----[12----12---]----------|
|------------------------------------------------------------------------------|
|------------------------------------------------------------------------------|
(Ditto on the brackets)
|--7\---------------7\-------------------------------------------------13-12\--|
|--5\--5--8----8p5--5\--5--8----8p5------10----10----10-[---10----10]--15------|
|------5--5--5----------5--5--5------/12----12----12----[10----10---]----------|
|------------------------------------------------------------------------------|
|------------------------------------------------------------------------------|
|------------------------------------------------------------------------------|


GUITAR 2
|--0--7--0--7--1------1--13--|
|--1--5--1--5--3--15--3--15--|
|--2--5--2--5--2--14--2--14--|
|--2-----2-----0--12--0------|
|--0-----0-------------------|
|----------------------------|



 ------
|CHORUS| (01:37 - 01:55) & (02:53 - 03:11)
 ------

GUITAR 1
|--------------------------|
|-----1--------------------|
|-----2-----------------1--|
|--3--2-----------6--3--0--|
|--3--0--3-5-5/7--6--3--2--|
|--1--------------4--1--0--|


GUITAR 2
|------------------------------|
|-----1-----------0-0-0--------|
|-----2-----------4-5-4-----1--|
|--3--2-----------6-6-6--3--0--|
|--3--0--3-5-5/7---------3--2--|
|--1---------------------1--0--|



 --------
|BRIDGE 1| (02:40 - 02:52)
 --------

BOTH GUITARS
|--7--5--3--2--1--0-------|
|--5--5--5--4--3---0------|
|--5--5--5--5--4----1-----|
|--------------------0----|
|---------------------2---|
|----------------------0--|



 ------------
|FINAL CHORUS| (03:12 - 03:30)
 ------------

GUITAR 1
|---------------------------------------------------|
|---------------------------------------------------|
|----------0h2-------0h2-----------0h2---------0h2--|
|------0h2---------0-----2-----0h2---------0h2------|
|--0h3---------0h3---------0h3---------0h3----------|
|---------------------------------------------------|

|---------------------------------------------------|
|---------------------------------------------------|
|----------2h4-------2h4-----------2h4---------2h4--|
|------0h2---------0-----2-----0h2---------0h2------|
|--0h2---------0h2---------0h2---------0h2----------|
|---------------------------------------------------|

|-----------------------------------------------------|
|-----------------------------------------------------|
|----------0h2-------0h2-----------2h4---------2h4----|
|------0h2---------0-----2-----0h2---------0h2--------|
|--0h3---------0h3---------0h2---------0h2---------0--|
|-----------------------------------------------------|


GUITAR 2
|------------------------------|
|-----1-----------0-0-0--------|
|-----2-----------4-5-4-----1--|
|--3--2-----------6-6-6--3--0--|
|--3--0--3-5-5/7---------3--2--|
|--1---------------------1--0--|



 --------
|BRIDGE 2| (03:43 - 04:07)
 --------

GUITAR 1
|----------------------------|
|----------------------------|
|----------------------------|
|--7/9----------7/9-------5--|
|------7-5\3-0------7-5\3----|
|----------------------------|


GUITAR 2
|--------------------------------|
|--------------------------------|
|--------------------------------|
|--------------------------------|
|--0~--0~--0-/8-5\0~--0-/8-5\0~--|
|--------------------------------|



 -----
|OUTRO| (04:08 - END)
 -----

GUITAR 1
|----------------------------|
|----------------------------|
|----------------------------|
|--7/9----------7/9-------5--|
|------7-5\3-0------7-5\3----|
|----------------------------|


GUITAR 2
|----------------|
|----------------|
|--10--7---------|
|--10--7--7--10--|
|--8---5--7--10--|
|---------5--8---|
Tap to rate this tab
# A B C D E F G H I J K L M N O P Q R S T U V W X Y Z