Guitaretab - guitar tabs
Song name
# A B C D E F G H I J K L M N O P Q R S T U V W X Y Z

Thrice - Broken Lungs tab

TABBED BY: TheMutts
====================================
Song: Broken Lungs
Artist: Thrice
Album: The Alchemy Index Vols. III & IV Air and Earth
====================================

Tuning: Drop 1 Step (D G C D A F)

Guitar 1: Clean
Guitar 2: Clean


[[INTRO]]  GUITAR 1
|----------------3------------------------3-------------|
|o------1-----1------1-----1-----1-----1-----1-----1---o|
|----4-----4------------4-----4-----4-----------4-------|
|-------------------------------------------------------| this is repeated
|o-----------------------------------------------------o| several times
|-------------------------------------------------------|


The chords for the verses' go like this (played by GUITAR 2)

Gm   A#major    Fmajor


[[CHORUS]] - GUITAR 1 (small dist.)
|------------------------------------0------------------------------------------------------------|
|------------------------------------1------------------------------------------------------------|
|------------------------------------2------------------------------------------------------------|
|-3-3-3-3-3-3-3-3-3-3-3-3-3-3-3-3----3-----3-3-3-3-3-3-3-3-3-3-3-3-3-3-3-3------------------------|
|-3-3-3-3-3-3-3-3-3-3-3-3-3-3-3-3----------3-3-3-3-3-3-3-3-3-3-3-3-3-3-3-3---------9h10-10-10-10-9|
|-1-1-1-1-1-1-1-1-1-1-1-1-1-1-1-1----------1-1-1-1-1-1-1-1-1-1-1-1-1-1-1-1------------------------|
|
|GUITAR 2
|-1-1-1-1-1-1-1-1-1-1-1-1-1-1-1-1----------1-1-1-1-1-1-1-1-1-1-1-1-1-1-1-1--0---------------------|
|-1-1-1-1-1-1-1-1-1-1-1-1-1-1-1-1----------1-1-1-1-1-1-1-1-1-1-1-1-1-1-1-1--1---------------------|
|-2-2-2-2-2-2-2-2-2-2-2-2-2-2-2-2----------2-2-2-2-2-2-2-2-2-2-2-2-2-2-2-2--2---------------------|
|-3-3-3-3-3-3-3-3-3-3-3-3-3-3-3-3----------3-3-3-3-3-3-3-3-3-3-3-3-3-3-3-3--3*rake chord----------|
|-3-3-3-3-3-3-3-3-3-3-3-3-3-3-3-3----------3-3-3-3-3-3-3-3-3-3-3-3-3-3-3-3------------------------|
|-1-1-1-1-1-1-1-1-1-1-1-1-1-1-1-1----------1-1-1-1-1-1-1-1-1-1-1-1-1-1-1-1------------------------|

[ Tab from: http://www.guitaretab.com/t/thrice/106532.html ]
 GUITAR 1 (small dist.)
|--------------------------------------0-------------------------------------------|
|--------------------------------------1--------------------------------------5----|
|--------------------------------------2--------------------------------------5----|
|-3-3-3-3-3-3-3-3-3-3-3-3-3-3-3-3------3-----3-3-3-3-3-3-3-3-3-3-3-3-3-3-3-3--5----|
|-3-3-3-3-3-3-3-3-3-3-3-3-3-3-3-3------------3-3-3-3-3-3-3-3-3-3-3-3-3-3-3-3--3----|
|-1-1-1-1-1-1-1-1-1-1-1-1-1-1-1-1------------1-1-1-1-1-1-1-1-1-1-1-1-1-1-1-1-------|
|
|GUITAR 2
|-1-1-1-1-1-1-1-1-1-1-1-1-1-1-1-1------------1-1-1-1-1-1-1-1-1-1-1-1-1-1-1-1-------|
|-1-1-1-1-1-1-1-1-1-1-1-1-1-1-1-1------------1-1-1-1-1-1-1-1-1-1-1-1-1-1-1-1-------|
|-2-2-2-2-2-2-2-2-2-2-2-2-2-2-2-2------------2-2-2-2-2-2-2-2-2-2-2-2-2-2-2-2-------|
|-3-3-3-3-3-3-3-3-3-3-3-3-3-3-3-3------------3-3-3-3-3-3-3-3-3-3-3-3-3-3-3-3-------|
|-3-3-3-3-3-3-3-3-3-3-3-3-3-3-3-3------------3-3-3-3-3-3-3-3-3-3-3-3-3-3-3-3-------|
|-1-1-1-1-1-1-1-1-1-1-1-1-1-1-1-1------------1-1-1-1-1-1-1-1-1-1-1-1-1-1-1-1-------|


[[INTERLUDE]] GUITAR 1 (clean)
|--8p7-------------------------------8p7-----------------------------|
|------8--------8------------------------8--------8------------------|
|--------9--7-9---9---5-5-7-5--4-----------9--7-9---9---5-5-7-7---7--|
|--------------------------------------------------------------------|
|--------------------------------------------------------------------|
|--------------------------------------------------------------------|

---8p7-------------------------------8p7---------------------------------------------------|
-------8--------8------------------------8--------8----------------------------------------|
---------9--7-9---9---5-5-7-5--4-----------9--7-9---9---5-5-7-7---7---/9-9-9-9-7-7\--------|
-------------------------------------------------------------------------------------------|
-------------------------------------------------------------------------------------------|
-------------------------------------------------------------------------------------------|

Guitar 2 plays same chords as the verse


[[VERSE 2]] GUITAR 2 PLAYS SAME CHORDS AS ABOVE


[[CHORUS 2]] SAME AS ABOVE CHORUS


[[DISTORTION ENDING]] GUITAR 1 (DISTORTION)
|------------------------|
|------------------------|
|------------------------|
|--2--2----2--2--2-------|
|--2--2----2--2--2-------|
|--0--0----0--0--0-------|

GUITAR 1 plays this throught the ending while GUITAR 2 (small dist.) plays this...

|---------------------------------------------------|
|-----13----13----13----13----13----13----13----13--|
|--16----16----16----16----16----16----16----16-----|
|---------------------------------------------------|
|---------------------------------------------------|
|---------------------------------------------------|
Related for Broken Lungs tab