Song name
# A B C D E F G H I J K L M N O P Q R S T U V W X Y Z

Thrice - A Song For Milly Michaelson tab

----------------------------------------------------------------------------
              A Song for Milly Michaelson- Thrice                           
----------------------------------------------------------------------------

Tabbed by: Josh
Email: b00157@hotmail.co.uk

My first tab, of a truly great song :)
Its about right I hope...

Tuning: Standard

INTRO/VERSE(x12) :
e|-------------------------------------------------------------------------|
B|----0--------------0--------------0--------------0-----------------------|
G|-------------------------------------------------------------------------|
D|----------2---0----------2---0----------2---0----------2---0-------------|
A|----------------------------------0--------------0-----------------------|
E|----3--------------3-----------------------------------------------------|

e|-------------------------------------------------------------------------|
B|----0--------------0--------------0--------------0-----------------------|
G|-------------------------------------------------------------------------|
D|----------2---0----------2---0----------2---0----------2---0-------------|
A|-------------------------------------------------------------------------|
E|----0--------------0--------------0--------------0-----------------------|

CHORUS 1:
e|-------------------------------------------------------------------------|
B|-----0----------0----------0---------0---------0----------0--------------|
G|-------0----------0----------0---------0---------0----------0------------|
D|-------------------------------2---------2-------------------------------|
A|----------7----------7------------------------------7----------7---------|
E|---8----------8----------3---------3---------8----------8----------------|

e|-------------------------------------------------------------------------|
B|-----0---------0---------0----------0----------0---------0---------------|
G|-------0---------0---------0----------0----------0---------0-------------|
D|---------2---------2-------------------------------2---------2-----------|
A|------------------------------7----------7-------------------------------|
E|---3---------3---------8----------8----------3---------3-----------------|

e|-------------------------------------------------------------------------|
B|-----0----------0----------0----------0----------0----------0------------|
G|-------0----------0----------0----------0----------0----------0----------|
D|-------------------------------------------------------------------------|
A|----------7----------7----------7----------7----------7----------7-------|
E|---8----------8----------8----------8----------8----------8--------------|

e|-------------------------------------------------------------------------|
B|-----0---------0---------0----------0----------0---------0---------------|
G|-------0---------0---------0----------0----------0---------0-------------|
D|---------2---------2-------------------------------2---------2-----------|
A|------------------------------7----------7-------------------------------|
E|---3---------3---------8----------8----------3---------3-----------------|

e|-------------------------------------------------------------------------|
B|-----0----------0----------0---------0-----------------------------------|
G|-------0----------0----------0---------0---------------------------------|
D|-------------------------------2---------2-------------------------------|
A|----------7----------7---------------------------------------------------|
E|---8----------8----------3---------3-------------------------------------|

INTRO/VERSE(x6) :
e|-------------------------------------------------------------------------|
B|----0--------------0--------------0--------------0-----------------------|
G|-------------------------------------------------------------------------|
D|----------2---0----------2---0----------2---0----------2---0-------------|
A|----------------------------------0--------------0-----------------------|
E|----3--------------3-----------------------------------------------------|

e|-------------------------------------------------------------------------|
B|----0--------------0--------------0--------------0-----------------------|
G|-------------------------------------------------------------------------|
D|----------2---0----------2---0----------2---0----------2---0-------------|
A|-------------------------------------------------------------------------|
E|----0--------------0--------------0--------------0-----------------------|

CHORUS 2:
e|-------------------------------------------------------------------------|
B|-----0----------0----------0---------0---------0----------0--------------|
G|-------0----------0----------0---------0---------0----------0------------|
D|-------------------------------2---------2-------------------------------|
A|----------7----------7------------------------------7----------7---------|
E|---8----------8----------3---------3---------8----------8----------------|

e|-------------------------------------------------------------------------|
B|-----0---------0---------0----------0----------0---------0---------------|
G|-------0---------0---------0----------0----------0---------0-------------|
D|---------2---------2-------------------------------2---------2-----------|
A|------------------------------7----------7-------------------------------|
E|---3---------3---------8----------8----------3---------3-----------------|

e|-------------------------------------------------------------------------|
B|-----0----------0----------0----------0----------0----------0------------|
G|-------0----------0----------0----------0----------0----------0----------|
D|-------------------------------------------------------------------------|
A|----------7----------7----------7----------7----------7----------7-------|
E|---8----------8----------8----------8----------8----------8--------------|

e|-------------------------------------------------------------------------|
B|-----0---------0---------0----------0----------0---------0---------------|
G|-------0---------0---------0----------0----------0---------0-------------|
D|---------2---------2-------------------------------2---------2-----------|
A|------------------------------7----------7-------------------------------|
E|---3---------3---------8----------8----------3---------3-----------------|

e|-------------------------------------------------------------------------|
B|-----0----------0----------0---------0-----------------------------------|
G|-------0----------0----------0---------0---------------------------------|
D|-------------------------------2---------2-------------------------------|
A|----------7----------7---------------------------------------------------|
E|---8----------8----------3---------3-------------------------------------|

e|--------------------------------------------------------------------------
B|---0--------------0--------------0--------------0-------------------------
G|--------------------------------------------------------------------------
D|---------2---0----------2---0----------2---0----------2---0---------------
A|--------------------------------------------------------------------------
E|---0--------------0--------------0--------------0-------------------------

e|-------------------------------------------------------------------------|
B|-----0----------0----------0---------0---------0----------0--------------|
G|-------0----------0----------0---------0---------0----------0------------|
D|-------------------------------2---------2-------------------------------|
A|----------7----------7------------------------------7----------7---------|
E|---8----------8----------3---------3---------8----------8----------------|

e|-------------------------------------------------------------------------|
B|-----0---------0---------0----------0----------0---------0---------------|
G|-------0---------0---------0----------0----------0---------0-------------|
D|---------2---------2-------------------------------2---------2-----------|
A|------------------------------7----------7-------------------------------|
E|---3---------3---------8----------8----------3---------3-----------------|

e|-------------------------------------------------------------------------|
B|-----0----------0----------0----------0----------0----------0------------|
G|-------0----------0----------0----------0----------0----------0----------|
D|-------------------------------------------------------------------------|
A|----------7----------7----------7----------7----------7----------7-------|
E|---8----------8----------8----------8----------8----------8--------------|

e|-------------------------------------------------------------------------|
B|-----0---------0---------0----------0----------0---------0---------------|
G|-------0---------0---------0----------0----------0---------0-------------|
D|---------2---------2-------------------------------2---------2-----------|
A|------------------------------7----------7-------------------------------|
E|---3---------3---------8----------8----------3---------3-----------------|

e|-------------------------------------------------------------------------|
B|-----0----------0----------0---------0-----------------------------------|
G|-------0----------0----------0---------0---------------------------------|
D|-------------------------------2---------2-------------------------------|
A|----------7----------7---------------------------------------------------|
E|---8----------8----------3---------3-------------------------------------|

OUTRO:
e|-------------------------------------------------------------------------|
B|----0--------------0--------------0--------------0-----------------------|
G|-------------------------------------------------------------------------|
D|----------2---0----------2---0----------2---0----------2---0-------------|
A|----------------------------------0--------------0-----------------------|
E|----3--------------3-----------------------------------------------------|

e|-------------------------------------------------------------------------|
B|----0--------------0--------------0--------------0-----------------------|
G|-------------------------------------------------------------------------|
D|----------2---0----------2---0----------2---0----------2---0-------------|
A|-------------------------------------------------------------------------|
E|----0--------------0--------------0--------------0-----------------------|

e|-------------------------------------------------------------------------|
B|----0--------------0--------------0--------------0-----------------------|
G|-------------------------------------------------------------------------|
D|----------2---0----------2---0----------2---0----------2---0----0~-------|
A|----------------------------------0--------------0-----------------------|
E|----3--------------3-----------------------------------------------------|



| /  slide up
| \  slide down
| h  hammer-on
| p  pull-off
| ~  vibrato
| +  harmonic
| x  Mute note
===============================================================================
Tap to rate this tab
 
# A B C D E F G H I J K L M N O P Q R S T U V W X Y Z