Song name
# A B C D E F G H I J K L M N O P Q R S T U V W X Y Z

Thrice - Broken Lungs Acoustic tab

this is the acoustic versin for the song, the video is on youtubeso, heres the link

http://www.youtube.com/watch?v=VggV-tGKW_M

hope its right, enjoy

tabbed by: doppleganger78




tuning-dgcfad((both guitars))
gtr1=teppei
gtr2=dustin


 (gtr1-teppei)
|-0--0-0-0--0-0-0--0-0-0--0-0----------3--------------3--------|
|-1--1-1-1--1-1-1--1-1-1--1-0----3---3---3---3---3--3---3---3--|
|-2--2-2-2--2-2-0--0-0-0--0-0--5---5-------5---5---5------5----|
|-2--2-2-2--2-2-2--2-2-2--2-0----------------------------------|
|---------------3--3-3-3--3------------------------------------|
|--------------------------------------------------------------|
  (gtr2-dustin)               this could be a G-chord
|-0--0-0-0--0-0-0--0-0-0--0-0-0--0-0-0--0-0-0--0-0-0--|
|-1--1-1-1--1-1-1--1-1-1--1-1-1--1-1-1--1-1-1--1-1-1--|
|-2--2-2-2--2-2-0--0-0-0--0-0-0--0-0-0--0-0-0--0-0-0--|
|-2--2-2-2--2-2-2--2-2-2--2-2-0--0-0-0--0-0-0--0-0-0--|
|---------------3--3-3-3--3-3-2--2-2-2--2-2-2--2-2-2--|
|-----------------------------3--3-3-3--3-3-3--3-3-3--|


 (gtr1)
|-----------------------------------0-------------------|
|-----------------------------------1-------------------|
|-----------------------------------0-------------------|
|-----------------------------------2-------------------|
|-3-3-3-3-3-3-3-3-3-3-3-3-3-3-3-3-3-3-------------------|
|-1-1-1-1-1-1-1-1-1-1-1-1-1-1-1-1-1-x-------------------|
 (gtr2)
|-1-1-1-1-1-1-1-1-1-1-1-1-1-1-1-1-1---------0-----0-----|
|-1-1-1-1-1-1-1-1-1-1-1-1-1-1-1-1-1---------1-----1-----|
|-2-2-2-2-2-2-2-2-2-2-2-2-2-2-2-2-2---2---2---2-----2---|
|-3-3-3-3-3-3-3-3-3-3-3-3-3-3-3-3-3-3---3-------3-----3-|
|-------------------------------------------------------|
|-------------------------------------------------------|


play this chords the same way dustins intro is played...
(gtr1)
|-0-0-0-0-----------------------------------------------|
|-1-1-1-1-----------------------------------------------|
|-2-0-0-0-----------------------------------------------|
|-2-2-0-0-----------------------------------------------|
|---3-2-2-----------------------------------------------|
|-----3-3-----------------------------------------------|
 (gtr2)
|-8p7---------3----------------8p7--------3---------------------------|
|-----8\5-3h5---5--1-1-3-1-0------8\5-3h5---5-1-1-3--3--3\5-5-5-5-\3--|
|---------------------------------------------------------------------|
|---------------------------------------------------------------------|
|---------------------------------------------------------------------|
|---------------------------------------------------------------------|

 (gtr1)
|-0--0-0-0--0-0-0--0-0-0--0-0----------3--------------3--------|
|-1--1-1-1--1-1-1--1-1-1--1-0----3---3---3---3---3--3---3---3--|
|-2--2-2-2--2-2-0--0-0-0--0-0--5---5-------5---5---5------5----|
|-2--2-2-2--2-2-2--2-2-2--2-0----------------------------------|
|---------------3--3-3-3--3------------------------------------|
|--------------------------------------------------------------|
  (gtr2)                       or a G-chord
|-0--0-0-0--0-0-0--0-0-0--0-0-0--0-0-0--0-0-0--0-0-0--|
|-1--1-1-1--1-1-1--1-1-1--1-1-1--1-1-1--1-1-1--1-1-1--|
|-2--2-2-2--2-2-0--0-0-0--0-0-0--0-0-0--0-0-0--0-0-0--|
|-2--2-2-2--2-2-2--2-2-2--2-2-0--0-0-0--0-0-0--0-0-0--|
|---------------3--3-3-3--3-3-2--2-2-2--2-2-2--2-2-2--|
|-----------------------------3--3-3-3--3-3-3--3-3-3--|


|----------------------3---------------5------------|
|----------------3---3---3---3---3---3---3---3------|
|-0-0--0-0--0--5---5-------5---5---5-------5--------|
|-2-2--2-2--2---------------------------------------|
|-2-2--2-2--2---------------------------------------|
|-0-0--0-0--0---------------------------------------|


|-------------0----------------------------------------|
|-------------1-THEN JUST STRUM THIS-------------------|
|-0-0--0-0--0-2----------------------------------------|
|-2-2--2-2--2-2----------------------------------------|
|-2-2--2-2--2------------------------------------------|
|-0-0--0-0--0------------------------------------------|



Woke up to a brand new skyline
We licked our wounds and mourn the dead
Swallow the story hook and sinker
Is that what we meant when we said
That we never would forget?

Are we fools and cowards all
To let them cover up their lies?
Cause we all watched the buildings fall
Watched the scales fall from our eyes

A fire burns beneath Manhattan
Still we breathe with broken lungs
We act like none of this matters
Is that what we meant When we said
That we'd sing what must be sung?

Are we fools and cowards all
To let them cover up their lies?
Cause we all watched the buildings fall
Watched the scales fall from our eyes

We want answers
Scream from the roofs
We want justice
We want the truth


Tap to rate this tab
# A B C D E F G H I J K L M N O P Q R S T U V W X Y Z