Song name
# A B C D E F G H I J K L M N O P Q R S T U V W X Y Z

Thrice - Earth Isnt Humming tab

ok so i got sick of not having a tab, so i modified the frodus one, by cjpm105 (which 
i add is awesome), to fit the thrice one.

i'm also putting in other instruments tracks as i play them, not sure if they are right though.


Intro/ Verse (guitar)
e|--------------------------------------------------|
B|------13------------------------------------------|
G|---x-----------------------12----12--12-12-12-12--|
D|--x------14----------------14----14--14-14-14-14--|
A|-x-------------12--15--12--12----12--12-12-12-12--|
E|x-------------------------------------------------|

e|-----------------------------------------------------|
B|--13-------------------------------------------------|
G|--------------------------------14----14------14-----|
D|--------14---------------12h14--12-12-----12-----12--|
A|--------------12--15p12------------------------------|
E|-----------------------------------------------------|
x3

Intro/ Verse (bass, although when they play live ed uses a guitar, but im pretty sure 
tuned an octave down)

G|-----------------------------------------------------------|
D|-----------------------------------------------------------|
A|--3--2--0-0h2--3--2--0------3--2--0-0h2------3--2--0---3/7-|
E|---0--0---------0--0--3-5----0--0----------0--0--3h5-------|
x3

Pre-Chorus (guitar)
e|--15-------17-----------15--14----15-------17-----------15--14--|
B|-----14----------14------------------14----------14-------------|
G|--------14----------14------------------14----------14----------|
D|----------------------------------------------------------------|
A|----------------------------------------------------------------|
E|----------------------------------------------------------------|


Pre-Chorus (banjo, i just play really close to the brigde with a thin pick)
e|--3--------5-------------3--2-----3---------5-------------3--2--|
B|-----2-----------2-------------------2------------2-------------|
G|--------2-----------2-------------------2------------2----------|
D|----------------------------------------------------------------|
A|----------------------------------------------------------------|
E|----------------------------------------------------------------|

Pre-Chorus(bass) not sure yet, any ideas tell me, maybe verse again.


Chorus
e|-----------------------------------------------------------------|
B|-----------------------------------------------------------------|
G|-----------------------------------------------------------------|
D|-----------------------------------------------------------------|
A|--7----7----7----7----5h7p5---5-----5-----8-----8-----5h8p5------|
E|----5----5----5----5-------5----5-----5----5-----5---------5-----|

e|--------------------------------------------------------|
B|--------------------------------------------------------|
G|--------------------------------------------------------|
D|-------------------------------5----5----9----9----9----|
A|--8----8----8----8----5h8p5-----------------------------|
E|----5----5----5----5--------5----5----5----5----5----5--|
x5

Chorus (bass)
once again not sure, it sounds like its just
G|-------------------------------------------------------|
D|-------------------------------------------------------|
A|-------------------------------------------------------|
E|--5--5--5--5--5--5--5--5/---5--5--5--5--5--5--5--5--5/-|

G|-------------------------------------------------------|
D|--------------------------------------------------2----|
A|----------------------------------------------2-5------|
E|--5--5--5--5--5--5--5--5/---5--5--5--5--5-3-5----------|


Breakdown (guitar)
e|-----------------------------------------------------------------|
B|--8-------------------10--10--10--10--10--10--8------------------|
G|----9-----------------9---9---9---9---9---9-----9----------------|
D|------10--------------7---7---7---7---7---7-------10-------------|
A|---------10-10-12v~----------------------------------10-10-12v~--|
E|-----------------------------------------------------------------|

x7
(i think)

Breakdown (bass)

G|------------------------------|
D|------------------------------|
A|--8-8-8-8h0-0-0-7-0-0-7-0-7-8-|
E|------------------------------|

G|-----------------------------------------|
D|-----------------------------------------|
A|--8-8-8-8h0-0-0-0-0-0-8-8-8-8-10-10-10-8-|
E|-----------------------------------------|

x8

Verse (guitar)
e|-------------|
B|--x-x--------|
G|--x-x----9~--|
D|--x-x----7~--|
A|-------------|
E|-------------|

e|-------------------------------------------------|
B|--13---------------------------------------------|
G|--------------------------12----12--12-12-12-12--|
D|--------14----------------14----14--14-14-14-14--|
A|--------------12--15--12--12----12--12-12-12-12--|
E|-------------------------------------------------|

e|--------------------------------------------------|
B|--13----------------------------------------------|
G|--------------------------------12----12--12--12--|
D|--------14---------------12h14--14----14--14--14--|
A|--------------12--15p12---------------------------|
E|--------------------------------------------------|

x2

e|------------------------------------------------------------|
B|--13---------------------------13---------------------------|
G|------------------------------------------------------------|
D|--------14---------------------------14---------------------|
A|--------------12--15----15p12--------------12--15----15-15--|
E|------------------------------------------------------------|

e|-------------------------------------------------------------------|
B|--13------------------------------13-------------------------------|
G|-------------------------------------------------------------------|
D|--------14------------------------------14------------10h12p10-----|
A|--------------12--15--12----15-15-------------12--15-----------10--|
E|-------------------------------------------------------------------|

x2


G|-----------------------------------------------------------|
D|-----------------------------------------------------------|
A|--3--2--0-0h2--3--2--0------3--2--0-0h2------3--2--0---3/7-|
E|---0--0---------0--0--3-5----0--0----------0--0--3h5-------|

x6

Final Chorus (guitar, banjo does the same the last 2 times.)
e|------------------------------------------------------------|
B|------------------------------------------------------------|
G|------------------------------------------------------------|
D|------------------------------------------------------------|
A|--7----7----7----7----5h7p5----5----5----5----5----5h7p5----|
E|----5----5----5----5--------5----5----5----5----5--------5--|

e|--------------------------------------------------------|
B|--------------------------------------------------------|
G|--------------------------------------------------------|
D|-------------------------------5----5----9----9----9----|
A|--8----8----8----8----5h8p5-----------------------------|
E|----5----5----5----5--------5----5----5----5----5----5--|

x4

Final Chorus (bass)
G|-------------------------------------------------------|
D|-------------------------------------------------------|
A|-------------------------------------------------------|
E|--5--5--5--5--5--5--5--5/---5--5--5--5--5--5--5--5--5/-|

G|-------------------------------------------------------|
D|--------------------------------------------------2----|
A|----------------------------------------------2-5------|
E|--5--5--5--5--5--5--5--5/---5--5--5--5--5-3-5----------|

x2

G|------------------------------------------------------------|
D|------------------------------------------------------------|
A|--7----7----7----7----5h7p5----5----5----5----5----5h7p5----|
E|----5----5----5----5--------5----5----5----5----5--------5--|

G|--------------------------------------------------------|
D|-------------------------------5----5----9----9----9----|
A|--8----8----8----8----5h8p5-----------------------------|
E|----5----5----5----5--------5----5----5----5----5----5--|


End on (guitar)
e|---------|
B|---------|
G|--9~~~~--|
D|--7~~~~--|
A|--7~~~~--|
E|--5~~~~--|

End on (bass)

G|-------|
D|-------|
A|-------|
E|--5~~~~|


and thats it, sorry if its a little confusing. i'm sure there are some wrong parts, and 
missing parts.


A message to Thrice: The FCI fully approves your reappropriation of this song and we 
you for accepting the implants that you have now willingly received.
Tap to rate this tab
# A B C D E F G H I J K L M N O P Q R S T U V W X Y Z