Song name
# A B C D E F G H I J K L M N O P Q R S T U V W X Y Z

Thrice - Send Me An Angel tab

The right tab for Send me An Angel. 

Inro
|--------------------------------------------------------------|
|-------4------------------------------------------------------|
|-----6---6--------9-----8-------------------------------------|
|---6-------6----6-----6---------------------------------------|
|-4------------7-----7-----------------------------------------|
|--------------------------------------------------------------|

Verse

You figure out the strumming pattern.
|--------------------------------------------|
|--------------------------------------------|
|--------------------------------------------|
|-------6----------------------6-------------|
|-7--9--4----------------7--9--4-------------|
|-5--7-------------------5--7----------------|

Prechorus

|-----------------------------------------------------|
|-----------------------------------------------------|
|-----------------------------------------------------|
|-----------------------------------------------------|
|-77777777--99999999-9--------------------------------|
|-55555555--77777777-7--------------------------------|

Chorus

Guitar 1
|-12h0-11h0-12h0-14h0-11h0-12h0----|        Repeats.
|----------------------------------|
|----------------------------------|
|----------------------------------|
|----------------------------------|
|----------------------------------|

Guitar 2


|----------------------------------|        Over and over.
|----------------------------------|
|----------------------------------|
|----------------------------------|
|-7--------------------------------|
|-5--------------------------------|

Inro
|--------------------------------------------------------------|
|-------4------------------------------------------------------|
|-----6---6--------9-----8-------------------------------------|
|---6-------6----6-----6---------------------------------------|
|-4------------7-----7-----------------------------------------|
|--------------------------------------------------------------|



Verse

|----------------------------------|
|----------------------------------|
|----------------------------------|
|-------4--------------------------|
|-7--9--6--------------------------|
|-5--7-----------------------------|


Prechorus

|-----------------------------------------------------|
|-----------------------------------------------------|
|-----------------------------------------------------|
|-----------------------------------------------------|
|-77777777--99999999-9--------------------------------|
|-55555555--77777777-7--------------------------------|


Chorus

Guitar 1
|-12h0-11h0-12h0-14h0-11h0-12h0----|        Repeats.
|----------------------------------|
|----------------------------------|
|----------------------------------|
|----------------------------------|
|----------------------------------|

Guitar 2


|----------------------------------|        Over and over.
|----------------------------------|
|----------------------------------|
|----------------------------------|
|-7--------------------------------|
|-5--------------------------------|

Before solo. Solo Bridge
|------------------------------------------------------------|
|------------------------------------------------------------|
|-----6-----4-----------------------------66--11-88----------|
|---6-----6----------------------------66-----------99-------| 
|-4-----4-----4-6-7-4-6-7-6--x2--44-77-----------------99----|
|------------------------------------------------------------|

Solo

Just play in the box between 14 and 17 and you'll have the solo down in no time.


This is my first tab so leave comments.





Tap to rate this tab
# A B C D E F G H I J K L M N O P Q R S T U V W X Y Z