Song name
# A B C D E F G H I J K L M N O P Q R S T U V W X Y Z

Thrice - As The Crow Flies tab

Help us improve GuitareTab! Take a short survey!
This is the Intro part of "As The Crow Flies" by Thrice. It's a song for the
new album "The Alchemy Index vol.III & IV"

e|-----------------------------|
B|-----------------------------|
D|-8-----8-----6------6--------|
G|---6-----6------6------6-----|  x2
A|-----7-----7------7------7---|
E|-----------------------------|


e|------------------------------------------------------|
B|----------------------------7------7------------------|
D|-8-----8-----9------9--------------------9-----9------|
G|---6-----6------6------6-------6-----6-----6-----6----| 
A|-----7-----7------7------7-------7-----7-----7-----7--|
E|------------------------------------------------------|


e|-----------------------------|
B|-----------------------------|
D|-8-----8-----6------6--------|
G|---6-----6------6------6-----|  x2
A|-----7-----7------7------7---|
E|-----------------------------|



e|------------------------------------------------------|
B|----------------------------7------7-----9----9-------|
D|-8-----8-----9------9---------------------------------|
G|---6-----6------6------6-------6-----6-----6-----6----| 
A|-----7-----7------7------7-------7-----7-----7-----7--|
E|------------------------------------------------------|


e|------------------------------------------------------|
B|-9-----9-----7------7--------7------7-----------------|
D|------------------------------------------9----9------|
G|---6-----6------6------6-------6-----6------6----6----| 
A|-----7-----7------7------7-------7-----7------7----7--|
E|------------------------------------------------------|


e|---------------------------|
B|---------------------------|
D|-9-----9-----9-----9-------|
G|---6-----6-----6-----6-----|  
A|-----7-----7-----7-----7---|
E|---------------------------|
Related for As The Crow Flies tab