Song name
# A B C D E F G H I J K L M N O P Q R S T U V W X Y Z

Thrice - The Sky Is Falling tab

The Sky Is Falling
Artist: Thrice
Album: The Alchemy Index, Disk 3: Wind

Notes: I've been unable to find a TAB of this song so... yeah. Transcribed entierly by 
Work out the picking/strumming and note lengths or yourself, this is very rough.

c = Continuous tremalo picking
p = pull-off

Tuning: 1 Step Down (Low to High: D G C F A D)

Intro, part 1
  Gtr I
||-----------------|-----------------||
||-16c-----17c-----|-12c-----14c-----||
||-----------------|-----------------||
||-----------------|-----------------||
||-----------------|-----------------||
||-----------------|-----------------||
|
| Gtr II
||-----------------|-------------4p0-||
||-----------------|-----------------||
||-----------------|-----------------||
||-----------------|-----------------||
||-----------------|-----------------||
||-----------------|-----------------||

Intro, part 2
  Gtr II                                     x9
||--2p0-------2p0------|-2p0-------2p0-------||
||o------2p0-------2p0-|------2p0-------2p0-o||
||---------------------|---------------------||
||---------------------|---------------------||
||o--------------------|--------------------o||
||---------------------|---------------------||

Verse
  Gtr II                                      x13
||--2p0-------2p0-------|-2p0-------2p0-------||
||o------2p0-------2p0--|------2p0-------2p0-o||
||----------------------|---------------------||
||----------------------|---------------------||
||o---------------------|---------------------||
||----------------------|---------------------||

Chorus
  Gtr I
||--21c-----16c-----|-19c-----14c-----|-----------------|------------------||
||o-----------------|-----------------|-16c-----17c-----|-12c-----14c-----o||
||------------------|-----------------|-----------------|------------------||
||------------------|-----------------|-----------------|------------------||
||o-----------------|-----------------|-----------------|-----------------o||
||------------------|-----------------|-----------------|------------------||
|
| Gtr II (all staccato notes)
||------------------|-----------------|-----------------|------------------||
||o-5-5-5-5-5-5-5-5-|-6-6-6-6-6-6-6-6-|-5-5-5-5-5-5-5-5-|-4-4-4-4-4-4-4-4-o||
||------------------|-----------------|-----------------|------------------||
||--7-7-7-7-7-7-7-7-|-7-7-7-7-7-7-7-7-|-7-7-7-7-7-7-7-7-|-7-7-7-7-7-7-7-7--||
||o-----------------|-----------------|-----------------|-----------------o||
||------------------|-----------------|-----------------|------------------||

Repeat Verse
Repeat Chorus

Bridge
  Gtr I
||--21c-----16c-----|-19c-----14c-----|-----------------|------------------||
||o-----------------|-----------------|-16c-----17c-----|-12c-----14c-----o||
||------------------|-----------------|-----------------|------------------||
||------------------|-----------------|-----------------|------------------||
||o-----------------|-----------------|-----------------|-----------------o||
||------------------|-----------------|-----------------|------------------||
|
| Gtr II (again, staccato)
||------------------|-----------------|-----------------|------------------||
||o-5-5-5-5-5-5-5-5-|-6-6-6-6-6-6-6-6-|-5-5-5-5-5-5-5-5-|-4-4-4-4-4-4-4-4-o||
||------------------|-----------------|-----------------|------------------||
||--7-7-7-7-7-7-7-7-|-7-7-7-7-7-7-7-7-|-7-7-7-7-7-7-7-7-|-7-7-7-7-7-7-7-7--||
||o-----------------|-----------------|-----------------|-----------------o||
||------------------|-----------------|-----------------|------------------||
Outro
  Gtr I
||--21c-----16c-----|-19c-----14c-----|-----------------|------------------||
||o-----------------|-----------------|-16c-----17c-----|-12c-----14c-----o||
||------------------|-----------------|-----------------|------------------||
||------------------|-----------------|-----------------|------------------||
||o-----------------|-----------------|-----------------|-----------------o||
||------------------|-----------------|-----------------|------------------||
Tap to rate this tab
# A B C D E F G H I J K L M N O P Q R S T U V W X Y Z