Song name
# A B C D E F G H I J K L M N O P Q R S T U V W X Y Z

Thrice - Circles tab

-------------------------------------------------------------------------------
			     CIRCLES by THRICE
				"Beggars" (2009)
-------------------------------------------------------------------------------
Bought Beggars yesterday, I love it, and in particular this song.
Enjoy, this is a fairly easy song :)

Tabbed by: Shaunedy
Email: shadow-dirapon@hotmail.co.uk

Tuning: Standard

INTRO

e|---------------------------------|
B|---------------------------------|
G|-5---5---5---7---5---5---5---7---|
D|---8---8---8---8---8---8---8---8-|
A|---------------------------------|
E|---------------------------------|

VERSE

Use these three chords and listen for when to change. I've done the first verse :)

e|---| We talk too much, we talk in circles,
B|-3-| 'til we're all spinning
G|-5-|
D|-5-| 
A|-3-|
E|---|

e|-1-| Round, reaching for rings
B|-3-| in this merry-go-
G|-3-|
D|-3-|
A|-1-|
E|-1-|

e|-3-| Round.
B|-4-| 
G|-5-|
D|-5-|
A|-3-|
E|---|

CHORUS

e|-------------------3-5-6---------|---------------3-5-6-6--------8-----|
B|-----------------3-------3-6-----|--------------3---------------------|
G|-5---5---5---7---------------5---|-5--5--5--7-------------------------|
D|---8---8---8---8---------------8-|---8--8--8--8-----------------------|
A|---------------------------------|------------------------------------|
E|---------------------------------|------------------------------------|

VERSE

CHORUS

PRE-SOLO

e|-----3---------3---------3---------3-----|
B|---6---3-3---6---3-3---6---3-3---6---3-3-|
G|-5---------5---------5---------5---------|
D|-----------------------------------------|
A|-----------------------------------------|
E|-----------------------------------------|

SOLO

e|--------------------------------------------------------------|
B|---------------------------------------------------3--------3-|
G|-2h3-2h3-2h3-2h3-2h3-2h3-2h3-2h3-2h3-2h3-2h3p0-0-0---0-0-0-0--|
D|------------------------------------------------------3-------|
A|--------------------------------------------------------------|
E|--------------------------------------------------------------|

e|--------------------------------------------------------------|
B|-------3-------3-------------3--------3-------------3---------|
G|-2h3-2---2h3-2---2-2h3--2h3-2---2h3-2---2-2h3-0-0-0---0--0-0--|
D|--------------------------------------------------------3-----|
A|--------------------------------------------------------------|
E|--------------------------------------------------------------|

e|-10tr-11tr-10tr-|-10tr-11tr-13tr-11tr-10tr-|-11tr-13tr-15tr-13tr-11tr-|
B|----------------|--------------------------|--------------------------|
G|----------------|--------------------------|--------------------------|
D|----------------|--------------------------|--------------------------|
A|----------------|--------------------------|--------------------------|
E|----------------|--------------------------|--------------------------|

And that's it :)


| /  slide up
| \  slide down
| h  hammer-on
| p  pull-off
| ~  vibrato
| +  harmonic
| x  Mute note
| tr Tremolo
===============================================================================
Tap to rate this tab
# A B C D E F G H I J K L M N O P Q R S T U V W X Y Z