Song name
# A B C D E F G H I J K L M N O P Q R S T U V W X Y Z

Thrice - Circles tab

this is much closer than any other tab i've seen on here.
It's not perfect, but it's close.


*Standard Tuning, Capo 3*

Every chord is relative to capo

Chords:

  Esus4  Em  G5  C5  Esus4* (see bottom)
|-0------0---0---0--------------------|
|-0------0---0---0--------------------|
|-2------0---0---5--------------------|
|-2------2---5---5--------------------|
|-2------2---5---3--------------------|
|------------3---0--------------------|



Intro:

|--------------------------|
|--------------------0-----|
|--2--0--2--0--2--0-----0--|  x 2
|--------------------------|
|--------------------------|
|--------------------------|

            Esus4            Em
We talk too much, we talk in circles

               G5                          C5                     Esus4*
Till we're all spinning round reaching for rings on this merry-go-round

        Esus4               Em
Scenery spins, we call it progress

                    G5
I've seen this all before

                C5                       Esus4*
When all's said done we wake up on the floor

   C5   G5       Em               G5          
We set sail with no fixed star in sight

   C5    G5   Em                  G5   
We drive by   Braille and candle light

               Esus4              Em
We're building towers with no foundation

              G5                   
Just stacking stone on stone

            C5                         Esus4*
Whatever it takes, Mix our mortar with bones

              Esus4
True progress means 

             Em                    G5
matching the world to the vision in our heads 

          C5                  Esus4*
We always change the vision instead

   C5   G5       Em               G5          
We set sail with no fixed star in sight

   C5    G5   Em                  G5   
We drive by   Braille and candle light


Esus4* (strummed, but similar to intro):

|---------------------------|
|--0--0--0--0--0---0--0--0--|
|--2--0--2--0--2---0--4--0--|  x 2
|--2--0--2--0--2---0-----0--|
|--2--0--2--0--2---0-----0--|
|--0--0--0--0--0---0-----0--|


Solo:

|--------------------------------|
|--------------------------------|
|--------------------------------|
|--4h5--4h5--4h5--4h5--4h5--4h5--|
|--4----4----4----4----4----4----|
|--------------------------------|

|--------------------------------|
|--------------------------------|
|--------------------------------|
|--4h5--4h5--4h5--4h5--4h5--4h5--|
|--4----4----4----4----4----4----|
|--------------------------------|

|----------0--------------------------|
|----------0--------------------------|
|-------------------------------------|
|-2--2--2-----0000--2--2--2--2--0000--|
|-2--2--2-----0000--2--2--2--2--0000--|
|-0--0--0-----0000--0--0--0--0--0000--|

|----------------------------|
|----------------------------|
|--------4-------4-----------|
|--4h5-4---4h5-4---4h5-4h5---|
|--4-------4-----------------|
|----------------------------|

|----------0--------------------------|
|----------0--------------------------|
|-------------------------------------|
|-2--2--2-----0000--2--2--2--2--0000--|
|-2--2--2-----0000--2--2--2--2--0000--|
|-0--0--0-----0000--0--0--0--0--0000--|

I don't want to copy the other tab, so
just look at it for this part. it goes
something like this:

|-10-11-10-----------10-11-13-11-10--|
|------------------------------------|
|------------------------------------|
|------------------------------------|
|------------------------------------|
|------------------------------------|
Tap to rate this tab
# A B C D E F G H I J K L M N O P Q R S T U V W X Y Z