Song name
# A B C D E F G H I J K L M N O P Q R S T U V W X Y Z

Thrice - In Your Hands Acoustic chords

Highlighted       Show chord diagrams
Standard, no capo. This is not exactly
how thrice plays it in any way, it's
just a fun way to do it acoustically.
Don't send stupid comments saying
that's not how it's supposed to be.

 -Thanks, enjoy-


Chords:
    F   Am   C   Dm   G
|---1---0----0---1----3---|
|---2---1----1---3----3---|
|---3---2----0---2----0---|
|---3---2----2---0----0---|
|---1---0----3---0----2---|
|---1---x----0---x----3---|


Intro (X2) :

|-------3---------3---------0---------0-------|
|---------------------------------------------|
|-----5---5-----5---5-----5---5-----5---5-----|
|---3-------3-3-------3-----------------------|
|-----------------------0-------0-0-------0---|
|---------------------------------------------|

      (x3)
|-----------------------------------------------------------|
|-----------------------------------------------------------|
|-10-10-10-10-x-10-10-10-10-x-9--9--9--9--x-9--9--9--9--x---|
|-x--x--x--x--x-x--x--x--x--x-x--x--x--x--x-x--x--x--x--x---|
|-8--8--8--8--x-8--8--8--8--x-7--7--7--7--x-7--7--7--7--x---|
|-----------------------------------------------------------|



|-------------------------------------------------------|
|-------------------------------------------------------|
|-5--5--5--5--x-4--4--4--4--x-9--9--9--9--x-7--7--7--7--|
|-x--x--x--x--x-x--x--x--x--x-x--x--x--x--x-x--x--x--x--|
|-3--3--3--3--x-2--2--2--2--x-7--7--7--7--x-5--5--5--5--|
|-------------------------------------------------------|


F                  Am
Bound to this couch, I lie in waiting 

          F                   Am
Watching wind blown memories 

       
Slip past my window sill I

F
Can't fall asleep, 

Am
Voice in my head disturbs me 

F
Waking nightmares keep, 

Am                             C
Have my cries fallen on deaf ears 

        Am         Dm       
Can you hear me

F   G
or am I

C
Talking to myself again 

          Am
Is there anybody listening 

        Dm
Are you taking this in 

     F          G
Am I wasting my breath 

C          
Tell me is the wind in your sails 

      Am
Worth everything you give 

        Dm
Are you looking for something 

     F      G
For- give-  ness?

  C
I leave it up to you 

            Am
I guess I'm better off removed 

               Dm
Because this situation's 

            F   
Growing too thick 

G         C
In your hands

Am Dm F G

      C
Could it have been something I said 

   Am
Or was it something that I did 

       Dm
Did I ruin my chance 

          F         G
Have you written me off 

     C      
Tell me where did I cross the line 

        Am         
And can I work my way back this time 

        Dm
Will I always regret this 

     F     G
De - ci - sion?

  C
I leave it up to you 

           Am
I hope you find a good excuse 

             Dm                           F
Because I've given about all that I can give 

 G      
In your hands

C
I could try to count the times 

     Am
That I've been through this in my mind 

        Dm
But I'm running out of fingers 

       F                    G
And I don't have that much time

    F         G
|---1-1-1-1---3------------------|
|---1-1-1-1---3------------------|
|---2-2-2-2---0------------------| - or something
|---3-3-3-3---0------------------|   like that
|---3-3-3-3---2------------------|
|---1-1-1-1---3------------------|

-End-
Tap to rate this tab
 
# A B C D E F G H I J K L M N O P Q R S T U V W X Y Z