Song name
# A B C D E F G H I J K L M N O P Q R S T U V W X Y Z

Thrice - Red Telephone tab

Band: Thrice
Song: Red Telephone
Album: Beggars (B-Side) Bonus Songs
Year: 2009
Tabbed By: Derek Lockrey

Rythum: Dustin Kensrue
Lead: Teppei Teranishi

Intro: (Lead)
E------------------------------------------------------------------|
A------------------------------------------------------------------|
D-3333-00-77-0000000-----5555-22-88-2222222--0-(Ring Out The 0)----| X2
G------------------------------------------------------------------|
B------------------------------------------------------------------|
e------------------------------------------------------------------|

Verse: (Lead)
E----------------------------------    -----------|
A----------------------------------    -----------|
D--1\3---3-------------------------    -----------|
G------2----------2----2----------- X2 -----------|
B-----------5-------5--------------    ----555----|
e------------------------3--5-6----    ----666----|

Verse: (Rythum)
E---------------------------------------------|
A---------------------------------------------|
D---------------------------------------------|
G--77777-55-777777-99999999-10101010101010----| X2 (Palm Mute)
B---------------------------------------------|
e---------------------------------------------|

Chorus: (Rythum)
E--------------------------------|
A-----------------555------------|
D--7--7-----------777-(Strum)----|  X2
G--10-10-(Strum)--777------------|
B--10-10-------------------------|
e--------------------------------|

Chorus: (Lead)
E-------------------------------|
A-------------------------------|
D-------------------------------|
G-101010101010--7-7-7-7-7-7-----| X2
B-101010101010--101010101010----|
e-------------------------------|

Bridge: (Rythum)
E-00--33--11-11-111----|
A-22--55--33-33-333----|
D-22--55--33-33-333----| X2
G----------------------|
B----------------------|
e----------------------|

Bridge: (Lead)
E----------------------------|
A----------------------------|
D-1/3---3---3----------------| X2
G-----2-----------3-----7----|
B---------5-----5-----9------|
e-------------5-----9--------|

Ending: (Lead & Rythum)
E-0--3--1----0--3--111----|
A-2--5--3----2--5--333----|
D-2--5--3----2--5--333----| X4
G-------------------------|
B-------------------------|
e-------------------------|

Red Telephone (Lyrics)

I Woke Alone,
In A Mansion On A Hill
Across The Room
A Red Telephone
My Mouth Was Dry
I Felt I'd Been Asleep For Years
I Turned And I
Discovered Then The Sum Of All My Fears

What Have I Become (Someone Tell Me That I'm Dreaming)
What Have I Become (Someone Wake Me Up)

Through The Glass
The Clouds Were Dark And Harboured Rain
The Land Below
Was Vast And Grey,
And Through The Mist
I Saw The Fields Were Flush With Graves
And Each Headstone
Was Etched With Lies discrediting The Brave

What Have I Become (Someone Tell Me That I'm Dreaming)
What Have I Become (Someone Wake Me Up)
What Have I Become (Someone Tell Me That I'm Dreaming)
What Have I Become (Someone Wake Me Up)

Son, Imitate Death's True Face
For Who And What And Why'd They Have To Die?
Son, Imitate Death's True Face
For Who And What And Why'd The Have To Die?
Why'd The Have To Die?
Someone Wake Me Up!


          Any Questions Or Comments Send To:
                 BOrr_04@hotmail.com
Tap to rate this tab
# A B C D E F G H I J K L M N O P Q R S T U V W X Y Z