Song name
# A B C D E F G H I J K L M N O P Q R S T U V W X Y Z

Thrice - Wood And Wire tab

Intro:

e---------------------------------|
B---------------------------------|
G---2---5---0---5---2~------------|
D---3-------2-------0-------------|
A---5-------3-------0-------------|
E---------------------------------|

e---------------------------------|
B---------------------------------|
G---2---5---0---3---2~------------|
D---3-------2-------0-------------|
A---5-------3-------0-------------|
E---------------------------------|

Don't know if thrice play this song standard tuning (:
Tap to rate this tab
# A B C D E F G H I J K L M N O P Q R S T U V W X Y Z