Song name
# A B C D E F G H I J K L M N O P Q R S T U V W X Y Z

Thrice - A Song For Milly Michaelson tab

Pretty sure this is the right way to play it. Definitely
only one guitar. People keep overanalyzing this song.

Chords:

  Em  G  Asus2  C7  ? (just a bass note)
e|-0---3--0------0---0----------------|
B|-0---0--0------0---0----------------|
G|-0---0--2------0---0----------------|
D|-2---0--2------2---0----------------|
A|-2---2--0------3---0----------------|
E|-0---3--0------0---2----------------|

Intro and verse:

  Em                      G           Asus2
|---------------------------------------------------|
|-0-----0-----0-----0-----0-----0-----0-----0-------|
|---------------------------------------------------|
|---2-----2-----2-----2-----0-----0-----2-----2-----|
|-----2-----2-----2-----2-----2-----2-0---0-0-------|
|-0-----0-----0-----0-----3-----3-------------------|

continue playing the same thing until the chorus.
verses start on the change to the G, always.

Before chorus, play out Em (4x), switch to this instead
of G.

Chorus:

  C7          G           C7          Em
|--------------------------------------------------|
|-0-----0-----0-----0-----0-----0-----0-----0------|
|--------------------------------------------------|
|---2-----2-----0-----0-----2-----2-----2-----2----|
|-3---3-3---3-----2-----2-3---3-3---3-----2-----2--|
|-------------3-----3-----------------0-----0------|
     Here we go             Hold on tight and don't let

  
  C7          Em          ?           G
|---------------------------------------------------|
|-0-----0-----0-----0-----0-----0-----0-----0-------|
|---------------------------------------------------|
|---2-----2-----2-----2-----0-----0-----0-----0-----|
|-3---3-3---3-----2-----2-----0-----0-----2-----2---|
|-------------0-----0-----2-----2-----3-----3-------|
go. I won't ever let you  fall.


  C7          G           C7          Em
|--------------------------------------------------|
|-0-----0-----0-----0-----0-----0-----0-----0------|
|--------------------------------------------------|
|---2-----2-----0-----0-----2-----2-----2-----2----|
|-3---3-3---3-----2-----2-3---3-3---3-----2-----2--|
|-------------3-----3-----------------0-----0------|
   I love the night         Flyin    o'er these city

  
  C7          Em          ?           G
|---------------------------------------------------|
|-0-----0-----0-----0-----0-----0-----0-----0-------|
|---------------------------------------------------|
|---2-----2-----2-----2-----0-----0-----0-----0-----|
|-3---3-3---3-----2-----2-----0-----0-----2-----2---|
|-------------0-----0-----2-----2-----3-----3-------|
lights, but I love you .. all. 

End on:

...|----------------------------|
...|-0-----0-----0-----0-----0--|
...|----------------------------|
...|---0-----0-----2-----2------|  let ring
...|-----2-----2-0---0-0---0----|
...|-3-----3-----------------0--|


Tap to rate this tab
# A B C D E F G H I J K L M N O P Q R S T U V W X Y Z