Guitaretab - guitar tabs
Song name
# A B C D E F G H I J K L M N O P Q R S T U V W X Y Z

Thrice - Wood And Wire tab

"Wood and Wire" by Thrice

Tabbed by: Zakk Roberts
Email: midkay@gmail.com
Standard tuning

Intro/verse riff
e|-------------------------------|
B|-------------------------------|
G|---------5---------------------|
D|--7~~~---3--5~~~---5--3~~~~----|
A|--5~~~------3~~~---5--5~~~~----|
E|-------------------------------|

Chorus 1
e|-------------------------------|
B|-------------------------------|
G|-------------------------------|
D|--8------7------8------7---5---|
A|--8------5------8------5---3---|
E|-------------------------------|

(Play verse again)
[ Tab from: http://www.guitaretab.com/t/thrice/204235.html ]
Chorus 2
e|-------------------------------|
B|-------------------------------|
G|-------------------------------|
D|--8------7------8------7-------|
A|--8------5------8------5-------|
E|-------------------------------|

e|-------------------------------|
B|-------------------------------|
G|-------------------------------|
D|--8------7--------5-----7------|
A|--8------5--------5-----7------|
E|-------------------------------|

Post-chorus 2
e|-------------------------------|
B|-------------------------------|
G|-------------------------------|
D|--8----7----8----7----8----7---|
A|--8----7----8----7----8----7---|
E|-------------------------------| [x2]

End on:
e|-----------------|
B|-----------------|
G|-----------------|
D|--8~~~~~---------|
A|--8~~~~~---------|
E|-----------------|

Have fun!
Related for Wood And Wire tab
×
Best way to learn
"Wood And Wire"