Song name
# A B C D E F G H I J K L M N O P Q R S T U V W X Y Z

Thrice - Carol Of The Bells tab

Thrice
Carol Of Bells
Tabbed By :Derek Lockrey
2009
Lead Guitar (Teppei)


Intro:
E|----------------------------------------------------------|
A|----------------------------------------------------------|
D|-5~--------0~----------3/5-------3h5555-3h555-3h555555----| X1
G|-------3~-----2h3h2h3h2-----------------------------------|
B|----3~---------------------3~-1~--------------------------|
e|----------------------------------------------------------|


E|---------------------------------------------------|
A|--------------------------------8-8/10~------------|
D|-------------------8-7-8h10h8----------------------| X1
G|-------------7h8h7----------------------7~-7/2~----|
B|-8h11h8h11h8---------------------------------------|
e|---------------------------------------------------|

E|---------------------------------------------------|
A|--------------------------------8-8/10-10~---------|
D|-------------------8-7-8h10h8----------------------| X
G|-------------7h8h7---------------------------------|
B|-8h11h8h11h8---------------------------------------|
e|---------------------------------------------------|

E|-------------------------------------------------|
A|--------------------------------8-8/10~----------|
D|-------------------8-7-8h10h8--------------------| X4
G|-------------7h8h7-------------------------------|
B|-8h11h8h11h8-------------------------------------|
e|-------------------------------------------------|
               . . . . . . .. .   . . ..


E|---------------------------------------------------|
A|--------------------------------8-8/10~------------|
D|-------------------8-7-8h10h8----------------------| X1
G|-------------7h8h7----------------------7~-7/2~----|
B|-8h11h8h11h8---------------------------------------|
e|---------------------------------------------------|


E|-------------------------------------------------|
A|--------------------------------8-8/10~----------|
D|-------------------8-7-8h10h8--------------------| X4
G|-------------7h8h7-------------------------------|
B|-8h11h8h11h8-------------------------------------|
e|-------------------------------------------------|


E|------------------------------------------------------------|
A|-----9-8-7~-6~----------------------------------------------|
D|---7--------------------------------------------------------|
G|-7~---------------------------------------------------------|
B|---------------7/21sf-19sf-17sf-16sf-17sf-16sf-14sf-21sf----|
e|------------------------------------------------------------|


E|-------------------------------------------------------------------------|
A|-------------------------------------------------------------------------|
D|-------------------------------------------------------------------------|
G|-------------------------------------------------------------------------|
B|-------------------------------------------------------------------------|
e|-18sf-19sf-21sf-(then the rest is just fast strumming in the same order)-|


Legend: sf = Strumming Fast
         . = Palm Mute
         / = Slide
         h = Hammer 
         ~ = Ring Out
Tap to rate this tab
 
# A B C D E F G H I J K L M N O P Q R S T U V W X Y Z