Song name
# A B C D E F G H I J K L M N O P Q R S T U V W X Y Z

Thrice - Beggars tab

e|-----------------------------------------------------------------|
b|--5---5---5---5---6---6---6---6---5---5---5---5---6---6---6---6--|
g|--5---5---5---5---5---5---5---5---5---5---5---5---5---5---5---5--|
d|----7---7---7---7---7---7---7---7---7---7---7---7---7---7---7----|
a|-----------------------------------------------------------------|
E|-----------------------------------------------------------------|

e|-----------------------------------------------------------------|
b|--5---5---5---5---6---6---6---6---5---5---5---5---6---6---6---6--|
g|--5---5---5---5---5---5---5---5---5---5---5---5---5---5---5---5--|
d|----7---7---7---7---7---7---7---7---7---7---7---7---7---7---7----|
a|-----------------------------------------------------------------|
E|-----------------------------------------------------------------|

e|-----------------------------------------------------------------|
b|--8---8---8---8---9---9---9---9---5---5---5---5---7---7---7---7--|
g|--7---7---7---7---7---7---7---7---5---5---5---5---5---5---5---5--|
d|----7---7---7---7---7---7---7---7---7---7---7---7---7---7---7----|
a|-----------------------------------------------------------------|
E|-----------------------------------------------------------------|

e|----------------------------------|
b|--6---6---6---6---5---5---5---5---|
g|--5---5---5---5---4---4---4---4---|
d|----7---7---7---7---2---2---2---2-|
a|----------------------------------|
E|----------------------------------|

The rest of the song gets harder as it progresses.  3rd verse introduces a second guitar 
that follows with distorted chords.  You should be okay if you use this progression.

e|--0---1---0---1---0---1---3---0---0---2---1---0------|
b|--1---1---1---1---1---1---3---0---1---1---1---0------|
g|--2---2---2---2---2---2---0---1---2---2---2---1------|
d|--2---3---2---3---2---3---0---2---2---2---3---2------|
a|--0---3---0---3---0---3---2---2---0---0---3---2------|
E|--------------------------3---0---------------0------|

e|--12~------12~------13-------12~-------------------------------|
b|------9-10~----9-10~----9-10~----9-10~-------------------------|
g|--------------------------------------10~-8-9~-----10~-9-8~----|
d|-----------------------------------------------7~-----------5~-|
a|---------------------------------------------------------------|
E|---------------------------------------------------------------|

e|--------------------------13~-11-12-----13~-11-12~-------------|
b|------------------------------------10~-----------8~-----------|
g|-10~-8-9~---10~-9-8~-------------------------------------------|
d|---------7~---------5~-----------------------------------------|
a|---------------------------------------------------------------|
E|---------------------------------------------------------------|
Tap to rate this tab
# A B C D E F G H I J K L M N O P Q R S T U V W X Y Z