Song name
# A B C D E F G H I J K L M N O P Q R S T U V W X Y Z

Thrice - Send Me An Angel tab

 ok soo all i could figure out was the intro for right now.as soon as i learn the rest 
post it back up ;)
enjoy


Guitar 1
Eb ----0---0-0------0---0-0--|
Bb ---3-3-----3----3-3-----3-|
Gb --2----2-------2----2-----|
Db -0----3-------0----3------|
Ab --------------------------|
Db --------------------------|

Guitar 2
Eb --------------------------|
Bb --------------------------|
Gb --------------------------|
Db -0------------0-0-0-------|
Ab -0------------0-0-0-------|
Db -0------------0-0-0-------|
Tap to rate this tab
 
# A B C D E F G H I J K L M N O P Q R S T U V W X Y Z