Song name
# A B C D E F G H I J K L M N O P Q R S T U V W X Y Z

Thrice - Image Of The Invisible tab

Song - Image Of the Invisible 
Artist - Thrice
Album - Vheissu
Tabbed By Screamokid2k@gmail.com

  Intro/Verse(lead)
D|-------------------------------------------------------------------------|
A|-------------------------------------------------------------------------|
F|-14--10--7---------------------------------------------------------------|
C|-x---x---x---------------------------------------------------------------|
G|-12--8---5---------------------------------------------------------------|
C|-------------------------------------------------------------------------|
  im not going to tab out every one, just strum as necessary

  Verse(Rhythm)
D|-------------------------------------------------------------------------|
A|-------------------------------------------------------------------------|
F|-------------------------------------------------------------------------|
C|-7-3-0-------------------------------------------------------------------|
G|-7-3-0-------------------------------------------------------------------|
C|-7-3-0-------------------------------------------------------------------|

  Chorus(lead)                        Post chorus            
D|----------8---7---10-12----10------|-------------------------------------|
A|-----10-----------------13----12br-|-------------------------------------|
F|---9----9---9---9------------------|-14--17-16---------------------------|
C|-7---------------------------------|--x---x--x---------------------------|
G|-----------------------------------|-12--15-14---------------------------|
C|-----------------------------------|-------------------------------------|

 Chorus(rhythm)
D|-----------------------------------|--------------------------------------|
A|-----------------------------------|--------------------------------------|
F|-----------------------------------|--------------------------------------|
C|-3-7-5-----------------------------|-3------------------------------------|
G|-3-7-5-----------------------------|-3------------------------------------|
C|-3-7-5-----------------------------|-3------------------------------------|
                                        strum as necessary

  Interlude(Rythm) clean
D|-------------------------|------------------------------------------------|
A|-------------------------|---start strumming------------------------------|
F|-------------------------|------------------------------------------------|
C|-3~-6~-7~--5h7--3~-6~-7~-|--3-6-7-----------------------------------------|
G|-3~-6~-7~-------3~-6~-7~-|--3-6-7-----------------------------------------|
C|-3~-6~-7~-------3~-6~-7~-|--3-6-7-----------------------------------------|
                  
                            Lead(strum)
D|-------------------------|------------------------------------------------|
A|-------------------------|------------------------------------------------|
F|-------------------------|-10--13-14--------------------------------------|
C|-------------------------|--x--x--x---------------------------------------|
G|-------------------------|--8--11-12--------------------------------------|
C|-------------------------|------------------------------------------------|

  Final chorus(rhythm)[lead is same as before]
D|-------------------------------------------------------------------------|
A|-------------------------------------------------------------------------|
F|----------5--------------------------------------------------------------|
C|-3--5--7--5--------------------------------------------------------------|
G|-3--5--7--3--------------------------------------------------------------|
C|-3--5--7-----------------------------------------------------------------|

  Outtro(lead)
D|-------------------------------------------------------------------------|
A|-------------------------------------------------------------------------|
F|-17-17-16--16-17-14------------------------------------------------------|
C|-x--x--x---x--x--x-------------------------------------------------------|
G|-15-15-14--14-15-12------------------------------------------------------|
C|-------------------------------------------------------------------------|
Tap to rate this tab
 
# A B C D E F G H I J K L M N O P Q R S T U V W X Y Z