Song name
# A B C D E F G H I J K L M N O P Q R S T U V W X Y Z

Thrice - Night Diving tab

Song: Night Diving
Artist: Thrice
Album: The Alchemy Index Vols. I & II Fire and Water
Tuning: Drop D

e|---------------------------------------------------------------------------|
B|---------------------------------------------------------------------------|
G|--8-7----8-7----8-7----8-7----8-7----8-7----8-7----8-7----8-7----8-7-------|
D|-----8------8------8------8------8------8------8------8------8------8------|
A|-6-6----6-6----6-6----6-6----6-6----6-6----6-6----6-6----6-6----6-6--------|
D|---------------------------------------------------------------------------|

Guitar 1
x2 second time only play 8 times
e|---------------------------------------------------------------------------|
B|---------------------------------------------------------------------------|
G|--8-7----8-7----8-7----8-7----8-7----8--10---------------------------------|
D|-----8------8------8------8------8-----8-----------------------------------|
A|-6-6----6-6----6-6----6-6----6-6----4-4------------------------------------|
D|---------------------------------------------------------------------------|

e|---------------------------------------------------------------------------|
B|---------------------------------------------------------------------------|
G|--8-7----8-7----8-7----8-7-------------------------------------------------|
D|-----8------8------8------8------------------------------------------------|Guitar 1
A|-6-6----6-6----6-6----6-6--------------------------------------------------|x2
D|---------------------------------------------------------------------------|

e|---------------------------------------------------------------------------|
B|-------------------------------------------first time---------second time--|
G|---------------------------------------------------------------------------|
D|-10-10-10-10-5-5-1--10-10-10-10-5-5-1--------------------------------------|Guitar 2
A|-10-10-10-10-5-5-1--10-10-10-10-5-5-1--8-6---8-6--5-5-6------8-6---6-4-----|x2
D|-10-10-10-10-5-5-1--10-10-10-10-5-5-1-----8-----8---------------8-----6----|

e|---------------------------------------------------------------------------|
B|---------------------------------------------------------------------------|
G|--8-7----8-7----8-7----8-7----8-7----8-7----8-7----8--10-------------------|
D|-----8------8------8------8------8------8------8-----8---------------------|
A|-6-6----6-6----6-6----6-6----6-6----6-6----6-6----4-4----------------------|Guitar 1
A|---------------------------------------------------------------------------|
D|---------------------------------------------------------------------------|
for this little starlight xylophone part i just play a d# as the bass
e|---------------------------------------------------------------------------|
B|---------------------------------------------------------------------------|
G|---------------------------------------------------------------------------|
D|---------------------------------------------------------------------------|Guitar 2
A|---------------------------------------------------------------------------|
E|-1-------1-------1-------1-------1-------1-------1-------1-------1--------1|

e|---------------------------------------------------------------------------|
B|---------------------------------------------------------------------------|
G|--8-7----8-7----8-7----8-7-------------------------------------------------|
D|-----8------8------8------8------------------------------------------------|Guitar 1
A|-6-6----6-6----6-6----6-6---------------------------------------------------|x2
D|---------------------------------------------------------------------------|

e|---------------------------------------------------------------------------|
B|-------------------------------------------first time---------second time--|
G|---------------------------------------------------------------------------|
D|-10-10-10-10-5-5-1--10-10-10-10-5-5-1--------------------------------------|Guitar 2
A|-10-10-10-10-5-5-1--10-10-10-10-5-5-1--8-6---8-6--5-5-6------8-6---6-4-----|x4, 4th time
D|-10-10-10-10-5-5-1--10-10-10-10-5-5-1-----8-----8---------------8-----6----| fade out

e|---------------------------------------------------------------------------|
B|---------------------------------------------------------------------------|
G|--8-7----8-7----8-7----8-7----8-7----8-7----8-7----8-7---------------------|
D|-----8------8------8------8------8------8------8------8--------------------|Guitar 1
A|-6-6----6-6----6-6----6-6----6-6----6-6----6-6----6-6----------------------|
D|---------------------------------------------------------------------------|


Tap to rate this tab
# A B C D E F G H I J K L M N O P Q R S T U V W X Y Z