Thrice - Red Telephone tab

this isnt perfect but it's a start
i dont usually do tabs just chords
but if someone could make a guitar pro tab,i hope this helps
I tuned my guitar down 



intro
G1  4x 2x 2x 8x  4x 2x 2x   8x                     
d |---------------------------|
A |---------------------------|
F |---------------------------|
C |-5-----9------7-----10-----|
G |----7-----7------9-------9-|
D |---------------------------|

G2
d |-----|
A |-----|
F |-9---|
C |-9---|
G |-7---|
D |-----|


I woke alone, in a mansion on a hill
------------------------------------|
------------------------------------|
9------------9------------------9---|
9-------7----9------7-----------9---|
7-------7----7------7-----------7---|
--------5-----------5---------------|
Across the room: a red telephone
------------------------------------|
------------------------------------|
9------------------9----------------|
9----------7-------9-------7--------|
7----------7-------7-------7--------|
-----------5---------------5--------|
3X
-----|
-----|
-9---|
-9---|
-7---|
-----|
 Mouth was dry, cuz Id been asleep for years
|--------------------------------------------|
|--------------------------------------------|
|-9------------9-----------------------------|
|-9--------7---9--------7---------------7----|
|-7--------7---7--------7---------------7----|
|----------5------------5---------------5----|

 I turned and I discovered then the sum of all my fears.
|------------------------------------------------------|
|------------------------------------------------------|
|-9---------------9------------------------------------|
|-9-----------7---9-------------------------------10---|
|-7-----------7---7-------------------------------10---|
|-------------5-----------------------------------8----|

chorus
 What have I become?
|-----------------------------|
|-----------------------------|
|10------------7--------------|
|10------------7--------------|
|8-------------5--------------|

Someone tell me that Im dreaming!
|---------------------------|
|---------------------------|
|---------------------------|
|7-----------------------10-|
|7-----------------------10-|
|5-----------------------8--|
 
 What have I become?
|-----------------------------|
|-----------------------------|
|10------------7--------------|
|10------------7--------------|
|8-------------5--------------|

Someone wake me up!
----|
----|
----|
-7--|
-7--|
-5--|

  2x  2x  4x 3x 
|---------------|
|---------------|
|-8---11--9--12-|
|-8---11--9--12-|
|-6---9---7--10-|
|---------------|

  2x  2x  7x
|-----------|
|-----------|
|-8---11--9-|
|-8---11--9-|
|-6---9---7-|
|-----------|

same here:

Through the glass, the clouds were dark and harbored rain;
The land below grey and vast.
And through the mist, I saw the fields were flush with graves,
And each headstone was etched with lies discrediting the brave.

chorus 2x

Son, imitate deaths true face;
For who and what and whyd they have to die?

  2x  2x  4x 3x 
|---------------|
|---------------|
|-8---11--9--12-|
|-8---11--9--12-|
|-6---9---7--10-|
|---------------|

  2x  2x  7x
|-----------|
|-----------|
|-8---11--9-|
|-8---11--9-|
|-6---9---7-|
|-----------|

let each chord ring at the end
|-----------|
|-----------|
|-8---11--9-|
|-8---11--9-|
|-6---9---7-|
|-----------|
Tap to rate this tab
 
# A B C D E F G H I J K L M N O P Q R S T U V W X Y Z