Song name
# A B C D E F G H I J K L M N O P Q R S T U V W X Y Z

Thrice - Moving Mountains tab

|-------------------------------------------|
|-------1-0---0--------------8---8----------|
|---2---2-------2--------9---9---9-9--------|
|---2-------------2------7-----------7------|
|-0---0-----0----------0---0---0------------|
|-------------------------------------------|

|-------------------------------------------|
|-------1-0---0--------------8---8----------|
|---2---2-------2--------9---9---9-9--------|
|---2-------------2------7-----------7------|
|-0---0-----0----------0---0---0------------|
|-------------------------------------------|


I think this should be correct... Egon SB.
Tap to rate this tab
 
# A B C D E F G H I J K L M N O P Q R S T U V W X Y Z