Thrice - Talking Through Glass tab

Great song, great album, great band

I couldn't find a tab online so I thought i'd make one,
Its my first tab ever but from playing along it seems to fit pretty well


standard tuning a whole step down

Verse part 1

D||-----------------|-----------------|
A||-----------------|-----------------|
F||-----------------|-----------------|
C||--------5-5-5-7-7|-------4---------|
G||--7-7-7----------|-7-7-7---5-5-----|
D||-----------------|-------------7-5-|

D||-----------------|-----------------|
A||-----------------|-----------------|
F||-----------------|-----------------|
C||--------5-5-5-7-7|-------5---5--/9-|
G||--7-7-7----------|-7-7-7---7-------|
D||-----------------|-----------------|  x2

verse part 2

listen for the timings, some chords are double strummed

D||--------12----12-|--------12----12-|
A||--------12----12-|--------12----12-|
F||--------12----12-|--------12----12-|
C||-/14-------14----|-14--14----14----|
G||-----------------|-----------------|
D||-----------------|-----------------|  x4

Then repeat both parts again

Chorus

D||/12--12--12--12---|-10--10--10--10--|
A||---12--12--12--12-|---12--12--12--12|
F||------------------|-----------------|
C||------------------|-----------------|
G||------------------|-----------------|
D||------------------|-----------------|

D||-10--10--10--10---|10--10--10--10---| slightly bend the last few 
A||---10--10--10--10-|--10--10--10--10-| to get the dischorded sound
F||------------------|-----------------|
C||------------------|-----------------|
G||------------------|-----------------|
D||------------------|-----------------| x2


Repeat verse

Repeat Chorus

Bridge

The chords for the bridge are:

D||-1---------------|-5---------------|
A||-1---------------|-5---------------|
F||-2---------------|-5---------------|
C||-3---------------|-7---------------|
G||-3---------------|-7---------------|
D||-1---------------|-5---------------|


D||-1---------------|-5-------8-------|
A||-1---------------|-5-------8-------|
F||-2---------------|-5-------9-------|
C||-3---------------|-7-------10------|
G||-3---------------|-7-------10------|
D||-1---------------|-5-------8-------|

Whilst one guitar goes:

D||-------------------------|-------------------------|
A||-15-15-15-15-15-15-15-15-|-13-13-13-13-13-13-13-13-|
F||-14-14-14-14-14-14-14-14-|-12-12-12-12-12-12-12-12-|
C||-12-12-12-12-12-12-12-12-|-10-10-10-10-10-10-10-10-|
G||-------------------------|-------------------------|
D||-------------------------|-------------------------| x3

D||-----------------|-------------------------|
A||--15-15-15----15/|-17-17-17-17-17-17-17-17-|
F||--14-14-14----14/|-16-16-16-16-16-16-16-16-|
C||--12-12-12----12/|-14-14-14-14-14-14-14-14-|
G||-----------------|-------------------------|
D||-----------------|-------------------------| x1

It's then repeated without vocals but the rhythm changes.

The very last chords are then slightly arpeggiated and left to ring out into the outro

I've not fully figured this bit out, but i have the main gist of it.

Change to 3/4 timing

D||--------------|---------------|
A||--------------|---------------|
F||-5p4---2------|-0-------------|
C||---------0----|---------------|
G||-0---0-----0--|------(0)------|
D||--------------|-3--------2b---|

D||--------------|---------------|
A||--------------|---------------|
F||-2------2-----|-2------2----2/|
C||----(0)-------|----(0)--------|
G||---------(0)--|----------(0)--|
D||-1------------|-1-------------|


Thanks for reading, your feedback is appreciated!

Tap to rate this tab
 
# A B C D E F G H I J K L M N O P Q R S T U V W X Y Z