Thrice - Moving Mountains tab

great song, deserves tabbing...

	Am		  Am   		    Am		       Am
E-----------------|-----------------|-----------------|-----------------|
B----2--2p0-0-----|---5--7p5-7-5----|----2--2p0-0-----|---5--7p5-7-5----|
G----3--3-----3---|---5--5-------5--|----3--3-----3---|---5--5-------5--|
D----3---------3--|---7-------------|----3---------3--|---7-------------|
A-0----0----------|-0---0-----------|-0----0----------|-0---0-----------|
E-----------------|-----------------|-----------------|-----------------|

	Am		  Am   		    Am		       Am
E-----------------|-----------------|-----------------|-----------------|
B----2--2p0-0-----|---5--7p5-7-5----|----2--2p0-0-----|---5--7p5-7-5----|
G----3--3-----3---|---5--5-------5--|----3--3-----3---|---5--5-------5--|
D----3---------3--|---7-------------|----3---------3--|---7-------------|
A-0----0----------|-0---0-----------|-0----0----------|-0---0-----------|
E-----------------|-----------------|-----------------|-----------------|

I speak in many tongues to may men..........

	F		  Dm
E-----------------|---1-------------|
B----1--3p1-1-----|---3--------3----|
G----2--------2---|---2--------0----|
D-3--3-3-------3--|-0---0--2/3---2--|
A-----------------|-----------------|
E-----------------|-----------------|

But i dont know the first thing.......


	Am		  Am   		    Am		       Am
E-----------------|-----------------|-----------------|-----------------|
B----2--2p0-0-----|---5--7p5-7-5----|----2--2p0-0-----|---5--7p5-7-5----|
G----3--3-----3---|---5--5-------5--|----3--3-----3---|---5--5-------5--|
D----3---------3--|---7-------------|----3---------3--|---7-------------|
A-0----0----------|-0---0-----------|-0----0----------|-0---0-----------|
E-----------------|-----------------|-----------------|-----------------|

	Am		  Am   		    Am		       Am
E-----------------|-----------------|-----------------|-----------------|
B----2--2p0-0-----|---5--7p5-7-5----|----2--2p0-0-----|---5--7p5-7-5----|
G----3--3-----3---|---5--5-------5--|----3--3-----3---|---5--5-------5--|
D----3---------3--|---7-------------|----3---------3--|---7-------------|
A-0----0----------|-0---0-----------|-0----0----------|-0---0-----------|
E-----------------|-----------------|-----------------|-----------------|

I prophesize and know all mysteries..........


	F		  Dm		     F			E
E-----------------|---1---1p0-0-----|-----------------|----------0------|
B----1--3p1-1-----|---3------3-3----|----1--3p1-1-----|---0---3---3-----|
G----2--------2---|---2---------2---|----2--------2---|---3---------1---|
D-3--3-3-------3--|-0---0-----------|-3--3-3-------3--|---2-------------|
A-----------------|-----------------|-----------------|-----2---x-------|
E-----------------|-----------------|-----------------|-0---------------|

But i dont know the first thing.......

       E
-----------------|
---0----0--0-----|
---3----1--1-----|
---2----0--0-----|
-------3--2------|
-0---0-----------|

With these parts it's easy to piece together the middle section which just runs F, 
Dm, Am x2 then F, E, dm, E 

Just let me know if the tab is incorrect and i'll repost it but i'm 95% sure this is it! 

Enjoy!
Tap to rate this tab
 
# A B C D E F G H I J K L M N O P Q R S T U V W X Y Z