Thrice - The Lion And The Wolf tab

-----------------------------------------------------------------------------
			             The Lion and the Wolf - Thrice
-----------------------------------------------------------------------------

Tabbed by: Austin811
Email: austin811@sbcglobal.net

Tuning: Standard (EADGBe)

Chords: Em       Am      B7      C#7
      022000   x02210  x21200  x4342x

This is what the piano part is:

Verse:    Em          Am          B7          Em
e|--------------------------------------------------------------------------|
B|------0-----0-----1-----1-----0-----0-----0-----0-----0-----0-----0-------|
G|----0-----0-----2-----2-----2-----2-----0-----0-----0-----0-----0---------|
D|--2-----2-----2-----2-----1-----1-----2-----2-----2-----2-----2-----------|
A|--------------------------------------------------------------------------|
E|--------------------------------------------------------------------------|


This is how I play it:

Verse:
           Em         Am          B7           Em
e|--------------------------------------------------------------------------|
B|------0-----0-----1-----1-----0-----0-----0-----0-----0-----0-------------|
G|------0-----0-----2-----2-----2-----2-----0-----0-----0-----0-------------|
D|----2-----2-----2-----2-----1-----1-----2-----2-----2-----2---------------|
A|--------------0-----0-----2-----2-----------------------------------------|
E|--0-----0-----------------------------0-----0-----0-----0-----------------|


   Em          Am                     B7            Em
The lion's outside of your door, the wolf's in your bed
   Em                 Am                    B7               Em
The lion's claws are sharpened for war, the wolf's teeth are red
    Am                Em              B7                 Em
and What a monstrous sight he makes, mocking man's best friend
 Am                Em             B7               C#7
Both the wolf and lion crave the same thing in the end
    Em         Am                    B7             Em
The lion's outside of your door, the wolf's in your bed


Repeat for interlude and second verse


The wolf he howls, the lion does roar, the wolf lets him in
The lion runs in through the door, the real fun begins
A stable thrash upon you will rip open your flesh
The lion eats his fill and then the wolf cleans up the mess
The lion's outside of your door, the wolf's in your bed
The lion's outside of your door, the wolf's in your bed
Tap to rate this tab
 
# A B C D E F G H I J K L M N O P Q R S T U V W X Y Z