Song name
# A B C D E F G H I J K L M N O P Q R S T U V W X Y Z

Thrice - Moving Mountains tab

-----------------------------------------------------------------------------
			     Moving Mountains - Thrice
-----------------------------------------------------------------------------
Tabbed by: Kyle Bichler	
Email: Bichlerk1@gmail.com

Tuning: Standard
 
This is just the main riff. Listen for timing.  The rest will be coming soon.

e|-------------------------------------------------------------------------|
B|---------1--0---0----------------10--8---8-------------------------------|
G|----2----2----2---2---------9-----9----9---9-----------------------------|
D|----2---------------2-------7----------------7---------------------------|
A|-0----0--0---------------0-----0--0------0-------------------------------|
E|-------------------------------------------------------------------------|

e|-------------------------------------------------------------------------|
B|----1----3--1---1----------2----2--------1------1------------------------|
G|----2----2----2---2--------3------3------0------0------------------------|
D|-3-----3--------3---3----0----0----------2------2------------------------|
A|--------------------------------------3------2---------------------------|
E|-------------------------------------------------------------------------|
Tap to rate this tab
# A B C D E F G H I J K L M N O P Q R S T U V W X Y Z