Song name
# A B C D E F G H I J K L M N O P Q R S T U V W X Y Z

Thrice - Yellow Belly tab

Thrice's new song 'Yellow Belly' from Major/Minor

Tabbed by joetinks

B Standard (2 1/2 steps down) (B,E,A,D,F#,b) 
(I have also tabbed it out in Drop D and Drop B [see other tabs])


[Intro/Main Riff]

 b|-----------------------------------------------|
F#|-----------------------------------------------|
 D|-----------------------------------------------|
 A|---------14--------14--------------------------|
 E|-----------------------------------------------|
 B|---10-12--- 10-12-----0---000-12-12-12-12-12---|

[Verse] (w/ main riff)

 b|---------------------------------------------------|
F#|---------------------------------------------------|
 D|---------------------------------------------------|
 A|--14-14-14-14-14-14-14-14-14-14-14-14-14-14-14-14--|
 E|--14-14-14-14-14-14-14-14-14-14-14-14-14-14-14-14--|
 B|--12-12-12-12-12-12-12-12-12-12-12-12-12-12-12-12--|

 b|-------------------------------------------|
F#|-------------------------------------------|
 D|-------------------------------------------|
 A|--10-10-10-10-10-10-10-10-7-7-7-7-7-7-7-7--|
 E|--10-10-10-10-10-10-10-10-7-7-7-7-7-7-7-7--|
 B|--8--8--8--8--8--8--8--8--5-5-5-5-5-5-5-5--|

[Chorus]

 b|-----------------------------------------|
F#|-----------------------------------------|
 D|-----------------------------------------|
 A|--12-12-12-14-14-14-2-----2-2-2-2-2-2-2--|
 E|--12-12-12-14-14-14-2-----2-2-2-2-2-2-2--|
 B|--10-10-10-12-12-12-0-----0-0-0-0-0-0-0--|


[Interlude/Solo]
(w/ Main Riff)

(tremelo pick)
 b|--------------------------------------------------|
F#|-17-17-17-17-17-17-17-17-21-21-21-21-21-21-21-21--|
 D|--------------------------------------------------|
 A|--------------------------------------------------|
 E|--------------------------------------------------|
 B|--------------------------------------------------|

 b|--------------------------------------------------|
F#|-22-22-22-22-22-22-22-22-21-21-21-21-21-21-21-21--|
 D|--------------------------------------------------|
 A|--------------------------------------------------|
 E|--------------------------------------------------|
 B|--------------------------------------------------|

[Bridge] (or just play the Verse chords)

 b|----------------------------------|
F#|----------------------------------|
 D|----------------------------------|
 A|----14-------14-----10-------7----|
 E|----------------------------------|
 B|--12-------12-----8-------5-------|

[Outro]

--[LEAD Outro]--
                                     (slides or hammer-ons work too)
 b|--------------|--------------------------------------------------|
F#|--------------|--------------------------------------------------|
 D|--19-19-19-19-|-19v--19v--16v--16v--13v--13v--13b14b13-13b14b13--|
 A|--------------|--------------------------------------------------|
 E|--------------|--------------------------------------------------|
 B|--------------|--------------------------------------------------|

 b|--------------------------------------------|
F#|--------------------------------------------|
 D|--12v--12v--11v--11v--13v--13v--13v--13v----| (v = vibrato)
 A|--------------------------------------------|
 E|--------------------------------------------|
 B|--------------------------------------------|

--[RHYTHM Outro]--

 b|--------------|
F#|--------------|
 D|--------------|
 A|--14-14-14-14-| 
 E|--14-14-14-14-|
 B|--12-12-12-12-|

 b|--------------------------------------------------------------------------|
F#|--------------------------------------------------------------------------|
 D|--------------------------------------------------------------------------|
 A|-10-10-10-10-10-10-10-10-7-7-7-7-7-7-7-7-2-2-2-2-2-2-2-2-2-2-2-2-2-2-2-2--|
 E|-10-10-10-10-10-10-10-10-7-7-7-7-7-7-7-7-2-2-2-2-2-2-2-2-2-2-2-2-2-2-2-2--|
 B|-8--8--8--8--8--8--8--8--5-5-5-5-5-5-5-5-0-0-0-0-0-0-0-0-0-0-0-0-0-0-0-0--|


STRUCTURE:

Intro/Main Riff
Verse
Chorus
Interlude (Solo)
Bridge (Verse)
Chorus
Outro
Main Riff

End
Tap to rate this tab
# A B C D E F G H I J K L M N O P Q R S T U V W X Y Z